Song name
# A B C D E F G H I J K L M N O P Q R S T U V W X Y Z

Tonic - Head On Straight tab

Tabbed & Arranged by: Josh Daley

Tuning: E B E A Db E (Both Guitars)

Guitar 1: Tablature (Acoustic)
Guitar 2: Tablature (Acoustic/Electric)



First Verse:

   Guitar 1:

   ----------0-------------0-----0-----------0-------------------|
   ------------3-------------3-----3-------3---3-----------3-----|
   --------2-----2-------2-----2---------0-------0-------0---0---| x2
   ------0---------0---0---------------4-----------4---4-------0-|
   ----0-------------0---------------2---------------2-----------|
   --0-----------------------------------------------------------|



First Pre-chorus:

   Guitar 1:

   ----------0---------------0-------------0-----------------0------|
   ------------3-----------3---3-------------3-----------------3----|
   --------2-----2-------2-------2-------0-----0---2-------0-----0--|
   ------0---------0---2-----------2---4---------4-------0----------|
   ----0-------------0---------------2-----------------5------------|
   --0-----------------------------------------------5--------------|

   ----------0---------------0-------------0-----------------0-0----|
   ------------3-----------3---3-------------3-----------------3----|
   --------2-----2-------2-------2-------0-----0---2-----------0----|
   ------0---------0---2-----------2---4---------4-------0-----0----|
   ----0-------------0---------------2-----------------5-------5----|
   --0-----------------------------------------------5---------5----|



First Interlude:

   Guitar 1:

   ----------0-------------0-----0-----------0-------------------|
   ------------3-------------3-----3-------3---3-----------3-----|
   --------2-----2-------2-----2---------0-------0-------0---0---| x2
   ------0---------0---0---------------4-----------4---4-------0-|
   ----0-------------0---------------2---------------2-----------|
   --0-----------------------------------------------------------|


   Guitar 2:

   -----------------------------------------------------------|
   -----------------------------------------------------------|
   ---x-x-x-11-11-11-9-12-11----x-x-x-11-11-11-9-12-11-7------|
   ---x-x-x--x--x--x-x--x--x----x-x-x--x--x--x-x--x--x-x------|
   ---x-x-x--9--9--9-7-10--9----x-x-x--9--9--9-7-10--9-5------|
   -----------------------------------------------------------|



Second Verse:

   Guitar 1:

   ----------0-------------0-----0-----------0-------------------|
   ------------3-------------3-----3-------3---3-----------3-----|
   --------2-----2-------2-----2---------0-------0-------0---0---| x2
   ------0---------0---0---------------4-----------4---4-------0-|
   ----0-------------0---------------2---------------2-----------|
   --0-----------------------------------------------------------|



   Guitar 2:

   --0----0----0----0----|
   --3----3----3----3----|
   --2----0----2----0----|
   --0----4----0----4----|
   --0----2----0----2----|
   --0---------0---------|



Second Pre-chorus:

   Guitar 1:

   ----------0---------------0-------------0-----------------0------|
   ------------3-----------3---3-------------3-----------------3----|
   --------2-----2-------2-------2-------0-----0---2-------0-----0--|
   ------0---------0---2-----------2---4---------4-------0----------|
   ----0-------------0---------------2-----------------5------------|
   --0-----------------------------------------------5--------------|

   ----------0---------------0-------------0-----------------0-0----|
   ------------3-----------3---3-------------3-----------------3----|
   --------2-----2-------2-------2-------0-----0---2-----------0----|
   ------0---------0---2-----------2---4---------4-------0-----0----|
   ----0-------------0---------------2-----------------5-------5----|
   --0-----------------------------------------------5---------5----|


   Guitar 2:

   --0--0--0--0--|
   --3--3--3--3--|
   --2--2--0--0--|   (Single Strums)
   --0--2--4--0--|
   --0--0--2--5--|
   --0--------5--|

   --0--0--0--0--|
   --3--3--3--3--|
   --2--2--0--0--|   (Crescendo)
   --0--2--4--0--|
   --0--0--2--5--|
   --0--------5--|



Chorus:

   Guitar 1 & 2:

   --0----0--0--|
   --3----0--3--|
   --2----4--0--|
   --0----4--0--|
   --0----2--5--|
   --0-------5--|



Second Interlude:


   Guitar 1:

   ----------0-------------0-----0-----------0-------------------|
   ------------3-------------3-----3-------3---3-----------3-----|
   --------2-----2-------2-----2---------0-------0-------0---0---|
   ------0---------0---0---------------4-----------4---4-------0-|
   ----0-------------0---------------2---------------2-----------|
   --0-----------------------------------------------------------|


   Guitar 2:

   -------------------------------|
   -------------------------------|
   ---x-x-x-11-11-11-9-12-11------|
   ---x-x-x--x--x--x-x--x--x------|
   ---x-x-x--9--9--9-7-10--9------|
   -------------------------------|



Bridge:

   Guitar 1 & 2: (Guitar 2 downstrokes only)

   --0----0----|
   --0----2----|
   --0----2----|
   --2----2----|
   --2----0----|
   --2---------|



Solo:

   Guitar 1:

   --0--0--0--0--|
   --3--3--3--3--|
   --2--2--0--0--| (Repeated)
   --0--2--4--0--|
   --0--0--2--5--|
   --0--------5--|

   Guitar 2:

   --------------------------------------------------------12-12^11^12-12--14/17---------0----|
   ---------------------------------------------------------x--x--x--x--x----------------3----|
   --6/7-7-7/9-9-9/11-11-11/12-12-12b14--12^11-9-9^12^11^9--9--9--9--9--9--------12^11-9-0----|
   --x/x-x-x/x-x-x/-x--x--x/-x--x--x-----------------------------------------------------0----|
   --4/5-5-5/7-7-7/-9--9--9/10-10-10-----------------------------------------------------5----|
   --------------------------------------------------------------------------------------5----|



Third Pre-chorus:

   Guitar 1:

   ----------0---------------0-------------0-----------------0------|
   ------------3-----------3---3-------------3-----------------3----|
   --------2-----2-------2-------2-------0-----0---2-------0-----0--|
   ------0---------0---2-----------2---4---------4-------0----------|
   ----0-------------0---------------2-----------------5------------|
   --0-----------------------------------------------5--------------|

   ----------0---------------0-------------0-----------------0-0----|
   ------------3-----------3---3-------------3-----------------3----|
   --------2-----2-------2-------2-------0-----0---2-----------0----|
   ------0---------0---2-----------2---4---------4-------0-----0----|
   ----0-------------0---------------2-----------------5-------5----|
   --0-----------------------------------------------5---------5----|



Outro Chorus:

   Guitar 1 & 2: (Guitar 2 downstrokes only)

   --0----0----|
   --0----2----|
   --0----2----|
   --2----2----|
   --2----0----|
   --2---------|


Outro:

   Guitar 1:

   --0--0--0--0--|
   --3--3--3--3--|
   --2--2--0--0--|   (Single Strums)
   --0--2--4--0--|
   --0--0--2--5--|
   --0--------5--|
Tap to rate this tab
 
# A B C D E F G H I J K L M N O P Q R S T U V W X Y Z