Song name
# A B C D E F G H I J K L M N O P Q R S T U V W X Y Z

Tonight Alive - Little Lion Man tab

Tuning: Standard
Song: Little Lion Man cover
Composing Artist: Tonight Alive
Original Artist: Mumphord & Sons

Key:
* = Palm Mute
\ = Pick Slide (I guess)



1st Verse (Rhtyhm + Lead):
e|-----------------------|
B|-----------------------|
G|-8------6--------------|
D|-8 x8---6 x8---4-------| x2
A|-6------4------4 x16---|
E|---------------2-------|
   *      *      *

e|-----------------------|
B|-----------------------|
G|-6 -----4 -------------|
D|-6 x8---4 x8---4 ------| x2
A|-4 -----2 -----4 x16---|
E|---------------2 ------|
   *      *      *

1st Chorus:
e|-6~ ---4~ ---2~ ---|    --------------|
B|-7~ ---6~ ---2~ ---|    --------------|
G|-8~ ---6~ ---3~ ---|    -444444444444-|
D|-8~ ---6~ ---4~ ---| x3 -444444444444-|
A|-6~ ---4~ ---4~ ---|    -222222222222-|
E|-------------2~ ---|    --------------|
                           ********

Post-Chorus (Lead):
e|--------------------------------------------------|\
B|-11-------11-------11----14-------14-------14-----| \
G|----11-11----11-11----11----11-11----11-11----11--|  \
D|--------------------------------------------------|   \
A|--------------------------------------------------|    \
E|--------------------------------------------------|     \
      *  *     *  *     *     *  *     *  *     *          \
                                                            \
e|-----------------------------------------------|           \
B|-11-------11-------11----9-------9-------9-----|            \
G|----11-11----11-11----11---11-11---11-11---11--|             \
D|-----------------------------------------------|              \ x2
A|-----------------------------------------------|              /
E|-----------------------------------------------|             /
      *  *     *  *     *    *  *    *  *    *                /
                                                             /
e|-----------------------------------------------|\         /
B|-9-----9-----9---7-----6-----6-----------------| \       /
G|---6-6---6-6---6---6-6---6-6---6---------------|  \ x2  /
D|-----------------------------------------------|  /    /
A|-----------------------------------------------| /    /
E|-----------------------------------------------|/    /
     * *   * *   *   * *   * *   *

Post-Chorus (Rhythm):
e|------------------------|
B|------------------------|
G|-8-------6--------------|
D|-8 x16---6 x16---4------|
A|-6-------4-------4 x32--|
E|-----------------2------|

2nd Verse (Rhythm):
e|------------------------|
B|------------------------|
G|-8~ ---6~ --------------|
D|-8~ ---6~ ---2~ ---4~ --| x2
A|-6~ ---4~ ---3~ ---4~ --|
E|-------------1~ ---2~ --|

e|------------------------|
B|------------------------|
G|-6-------4--------------|
D|-6 x16---4 x16---4------| x2
A|-4-------2-------4 x32--|
E|-----------------2------|

2nd Verse (Lead):
e|--------------------------|    --------|
B|--------------------------|    --------|
G|-8~ ---6~ ---10~ ---11~ --|    -11~ ---|
D|-x  ---x  ---x   ---x   --| x2 -x   -\-|
A|-6~ ---4~ ---8 ~ ---9 ~ --|    -9 ~ -\-|
E|--------------------------|    ------\-|

e|----------------------9-----------------------|
B|------6h7p6-------6h7--------6h7p6-------9-7--|
G|-6666-------6-666-------6666-------6-666------| x3
D|----------------------------------------------|
A|----------------------------------------------|
E|----------------------------------------------|

e|----------------------9-----------------------|
B|------6h7p6-------6h7-------------------------|
G|-6666-------6-666-------11-11-11-11-----------|
D|------------------------x--x--x--x------------|
A|------------------------9--9--9--9------------|
E|----------------------------------------------|

2nd Chorus (Rhythm):
e|---------------------|    --------------------|\
B|---------------------|    --------------------| \
G|-8888-6666-----------|    -66666666-55555555--|  \ x2
D|-8888-6666-44444444--| x3 -66666666-66666666--|  /
A|-6666-4444-44444444--|    -44444444-33333333--| /
E|-----------22222222--|    --------------------|/

2nd Chorus (Lead):
e|------------------------------------|    --------------------|\
B|------------------------------------|    --------------------| \
G|-8888-6666-11-11-11-11-11-11-11-11--|    -6666666666666666---|  \ x2
D|-xxxx-xxxx-x--x--x--x--x--x--x--x---| x3 -xxxxxxxxxxxxxxxx---|  /
A|-6666-4444-9--9--9--9--9--9--9--9---|    -4444444444444444---| /
E|------------------------------------|    --------------------|/

Sadly I have no clue as to what the bridge would be because I'm bad with that
kind of stuff but the vocalizing part would be this.

Vocalizing Part:
e|------------------------------|
B|------------------------------|
G|-6------8------4------11------|
D|-6 x8---8 x4---4 x4---11 x16--|
A|-4------6------2------9-------|
E|------------------------------|

Last Chorus (Rhythm):
e|------------------|    --------------------|\
B|------------------|    --------------------| \
G|-8888-6666--------|    -66666666-55555555--|  \ x1
D|-8888-6666-4x4x4--| x3 -66666666-66666666--|  /
A|-6666-4444-4x4x4--|    -44444444-33333333--| /
E|-----------2x2x2--|    --------------------|/

e|---------------------|    --------------------|\
B|---------------------|    --------------------| \
G|-8888-6666-----------|    -66666666-55555555--|  \ x1
D|-8888-6666-44444444--| x3 -66666666-66666666--|  /
A|-6666-4444-44444444--|    -44444444-33333333--| /
E|-----------22222222--|    --------------------|/


2nd Chorus (Lead):
e|------------------------------------|    --------------------|\
B|------------------------------------|    --------------------| \
G|-8888-6666-11-11-11-11-11-11-11-11--|    -6666666666666666---|  \ x1
D|-xxxx-xxxx-x--x--x--x--x--x--x--x---| x3 -xxxxxxxxxxxxxxxx---|  /
A|-6666-4444-9--9--9--9--9--9--9--9---|    -4444444444444444---| /
E|------------------------------------|    --------------------|/



Yeah, I don't know the lead for the last chorus.
If anyone can put up a complete tab that would
be very much appreciated :) thanks guys hope you enjoy.


Tap to rate this tab
# A B C D E F G H I J K L M N O P Q R S T U V W X Y Z