Song name
# A B C D E F G H I J K L M N O P Q R S T U V W X Y Z

Tonight Alive - Breaking And Entering tab

E|-8-0-8-0-8-0-8-0-|-7-0-7-0-7-0-7-0-|-5-0-5-0-5-0-5-0-|-10-0-10-0-7-0-7-0-||
B|-----------------|-----------------|-----------------|-------------------||
G|-----------------|-----------------|-----------------|-------------------||
D|-----------------|-----------------|-----------------|-------------------||
A|-----------------|-----------------|-----------------|-------------------||
E|-----------------|-----------------|-----------------|-------------------||

E|-8-0-8-0-8-0-8-0-|-7-0-7-0-7-0-7-0-|-5-0-5-0-5-0-5-0-|-10-0-10-0-7-0-7-0-||
B|-----------------|-----------------|-----------------|-------------------||
G|-----------------|-----------------|-----------------|-------------------||
D|-----------------|-----------------|-----------------|-------------------||
A|-----------------|-----------------|-----------------|-------------------||
E|-----------------|-----------------|-----------------|-------------------||

E|------------------------|------------------------||
B|-13----------------13---|-------------13---------||
G|----14----14----14----14|----14----14----14----14||
D|-------14----14---------|-14----14----------14---||
A|------------------------|------------------------|| 
E|------------------------|------------------------||

E|-12----------------12-----|------------------------||
B|----12----12----12-----12-|-------------12---------||
G|-------14----14-----------|----12----12----12----12||
D|--------------------------|-14----14----------14---||
A|--------------------------|------------------------|| 
E|--------------------------|------------------------||

E|-------------------------|-------------------------||
B|-10----------------10----|-------------10----------||
G|----10----10----10----10-|----10----10----10----10-||
D|------12----12-----------|-12----12----------12----||
A|-------------------------|-------------------------||
E|-------------------------|-------------------------||

E|-------------------------|-------------------------||
B|-12----------------12----|-------------12----------||
G|----12----12----12----12-|----12----12----12----12-||
D|-------14----14----------|-14----14----------14----||
A|-------------------------|-------------------------|| 
E|-------------------------|-------------------------||

E|-------------------------|-------------------------||
B|-13----------------13----|-------------13----------||
G|----14----14----14----14-|----14----14----14----14-||
D|-------14----14----------|-14----14----------14----||
A|-------------------------|-------------------------|| 
E|-------------------------|-------------------------||

E|-------------------------|-------------------------||
B|-12----------------12----|-------------12----------||
G|----12----12----12----12-|----12----12----12----12-||
D|-------14----14----------|-14----14----------14----||
A|-------------------------|-------------------------|| 
E|-------------------------|-------------------------||

E|-------------------------|-------------------||
B|-10----------------10----|-------------10----||
G|----10----10----10----10-|----10----10----10-||
D|-------12----12----------|-12----12----------||
A|-------------------------|-------------------|| 
E|-------------------------|-------------------||

E|-------------------------|-------------------------||
B|-12----------------12----|-------------12----------||
G|----12----12----12----12-|----12----12----12----12-||
D|-------14----14----------|-14----14----------14----||
A|-------------------------|-------------------------|| 
E|-------------------------|-------------------------||







Tap to rate this tab
 
# A B C D E F G H I J K L M N O P Q R S T U V W X Y Z