Song name
# A B C D E F G H I J K L M N O P Q R S T U V W X Y Z

Tonight Alive - Wasting Away tab

-------------------------------------------------------------------------------
                             Wasting Away - Tonight Alive
-------------------------------------------------------------------------------
Tabbed by: Average@Best
E-mail:robhoyle@live.com

Tuning: Dropped-D

(intro) Guitar 2
e|---------------------------------------------------------------------------|
B|---------------------------------------------------------------------------|
G|---------7-----------------------------------------------------------------|
D|--4------7-x8---7------2-----------4------0------7------2------------------|
A|--4-x8---5------7-x8---2-x8--------4-x8---0-x8---7-x8---2------------------|
E|--4-------------7------2-----------4------0------7------2------------------|

*repeat twice*
e|---------------------------------------------------------------------------|
B|---------------------------------------------------------------------------|
G|---------------------------------------------------------------------------|
D|-00000-00000-222-44444-44444-222-------------------------------------------|
A|-00000-00000-222-44444-44444-222-------------------------------------------|
E|-00000-00000-222-44444-44444-222-------------------------------------------|

(intro)-Guitar 1  *comes in when the part directly above^ comes in*
e|---------------------------------------------------------------------------|
B|---------------------------------------------------------------------------|
G|-11-------13------14-------13------11-------9-------6-------4------9-------|
D|-x--x12---x--x4---x--x12---x--x4---x--x12---x--x4---x--x8---x-x4---x--x4---|
A|-9--------11------12-------11------9--------7-------4-------2------7-------|
E|---------------------------------------------------------------------------|

(verse 1) Guitar 2
e|---------------------------------------------------------------------------|
B|---------------------------------------------------------------------------|
G|---------------------------------------------------------------------------|
D|-000-0-00-00-444-4-44-22-000-0-00-00-444-4-44-22-0-2-----------------------|
A|-000-0-00-00-444-4-44-22-000-0-00-00-444-4-44-22-0-2-----------------------|
E|-000-0-00-00-444-4-44-22-000-0-00-00-444-4-44-22-0-2-----------------------|
   ...............................................

(verse)- guitar 1
e|---------------------------------------------------------------------------|
B|-10-10---10-10---10---10-10---10-10---10---10-10---10-10---10--------------|
G|-------7-------7----7-------7-------7----7-------9-------9----9------------|
D|---------------------------------------------------------------------------|
A|---------------------------------------------------------------------------|
E|---------------------------------------------------------------------------|

e|---------------------------------------------------------------------------|
B|-10-10---10-10---10---10-10---10-10---10---10-10---10-10---10--------------|
G|-------9-------9----9-------7-------7----7-------7-------7----7------------|
D|---------------------------------------------------------------------------|
A|---------------------------------------------------------------------------|
E|---------------------------------------------------------------------------|

e|---------------------------------------------------------------------------|
B|-10-10---10-10---10---10-10---10-10---10----10--9~-------------------------|
G|-------9-------9----9-------9-------9----9---------------------------------|
D|---------------------------------------------------------------------------|
A|---------------------------------------------------------------------------|
E|---------------------------------------------------------------------------|


(chorus) Guitar 2 *repeat twice*
e|---------------------------------------------------------------------------|
B|---------------------------------------------------------------------------|
G|---------7-----------------------------------------------------------------|
D|--4------7-x8---7------2------4------0------7------2-----------------------|
A|--4-x8---5------7-x8---2-x8---4-x8---0-x8---7-x8---2-x8--------------------|
E|--4-------------7------2------4------0------7------2-----------------------|

(chorus) Guitar 1. (I'm only 80% on this bit, however it fits very nicely)
e|---------------------------------------------------------------------------|
B|---------------------------------------------------------------------------|
G|-6-----6-------6-----6----------------7-4-7--------7-4---------------------|
D|---4-6---4-6-4---4-6---4-6-4---6-7-6-4------6-7-6-4----6-------------------|
A|---------------------------------------------------------------------------|
E|---------------------------------------------------------------------------|

e|-----------------------------------------------------------------------------|
B|-----------------------------------------------------------------------------|
G|-6-----6-------6-----6----------------7-4-7--------7-4-----------------------|
D|---4-6---4-6-4---4-6---4-6-4---6-7-6-4------6-7-6-4----6---------------------|
A|-----------------------------------------------------------------------------|
E|-----------------------------------------------------------------------------|


e|---------------------------------------------------------------------------|
B|---------------------------------------------------------------------------|
G|-6-----6-------6-----6-----------------------------------------------------|
D|---4-6---4-6-4---4-6---4-6-4-----------------------------------------------|
A|---------------------------------------------------------------------------|
E|---------------------------------------------------------------------------|

e|---------------------------------------------------------------------------|
B|---------------------------------------------------------------------------|
G|-9-------13------14------13------14------9---------------------------------|
D|-x--x8---x--x8---x--x8---x--x8---x--x8---x---------------------------------|
A|-7-------11------12------11------12------7---------------------------------|
E|---------------------------------------------------------------------------|


(verse 2) Guitar 2 *comes in half way through verse*
e|---------------------------------------------------------------------------|
B|---------------------------------------------------------------------------|
G|---------------------------------------------------------------------------|
D|-000-0-00-00-444-4-44-22-000-0-00-00-444-4-44-22-0-2-----------------------|
A|-000-0-00-00-444-4-44-22-000-0-00-00-444-4-44-22-0-2-----------------------|
E|-000-0-00-00-444-4-44-22-000-0-00-00-444-4-44-22-0-2-----------------------|
   ...............................................


(verse 2)- guitar 1 * first half slow, second half fast*
e|---------------------------------------------------------------------------|
B|-10-10---10-10---10-10---10-10---10-10---10-10---10-10---10-10---10-10-----|
G|-------7-------7-------7-------7-------9-------9-------9-------9-------9---|
D|---------------------------------------------------------------------------|
A|---------------------------------------------------------------------------|
E|---------------------------------------------------------------------------|

e|---------------------------------------------------------------------------|
B|-10-10---10-10---10---10-10---10-10---10-10---10-10------------------------|
G-------7-------7-----7-------9-------9-------9-------9----------------------|
D|---------------------------------------------------------------------------|
A|---------------------------------------------------------------------------|
E|---------------------------------------------------------------------------|


e|---------------------------------------------------------------------------|
B|-10-10---10-10---10---10-10---10-10---10---10-10---10-10---10--------------|
G|-------7-------7----7-------7-------7----7-------9-------9----9------------|
D|---------------------------------------------------------------------------|
A|---------------------------------------------------------------------------|
E|---------------------------------------------------------------------------|

e|---------------------------------------------------------------------------|
B|-10-10---10-10---10---10-10---10-10---10---10-10---10-10---10--------------|
G|-------9-------9----9-------7-------7----7-------7-------7----7------------|
D|---------------------------------------------------------------------------|
A|---------------------------------------------------------------------------|
E|---------------------------------------------------------------------------|




e|---------------------------------------------------------------------------|
B|-10-10---10-10---10---10-10---10-10---10---10-9----------------------------|
G|-------9-------9----9-------9-------9----9---------------------------------|
D|---------------------------------------------------------------------------|
A|---------------------------------------------------------------------------|
E|---------------------------------------------------------------------------|


(chorus2) Guitar 2 *repeat twice*
e|---------------------------------------------------------------------------|
B|---------------------------------------------------------------------------|
G|---------7-----------------------------------------------------------------|
D|--4------7-x8---7------2------4------0------7------2-----------------------|
A|--4-x8---5------7-x8---2-x8---4-x8---0-x8---7-x8---2-x8--------------------|
E|--4-------------7------2------4------0------7------2-----------------------|

(chorus2) Guitar 1. (I'm only 80% on this bit, however it fits very nicely)
e|---------------------------------------------------------------------------|
B|---------------------------------------------------------------------------|
G|-6-----6-------6-----6----------------7-4-7--------7-4---------------------|
D|---4-6---4-6-4---4-6---4-6-4---6-7-6-4------6-7-6-4----6-------------------|
A|---------------------------------------------------------------------------|
E|---------------------------------------------------------------------------|

e|-----------------------------------------------------------------------------|
B|-----------------------------------------------------------------------------|
G|-6-----6-------6-----6----------------7-4-7--------7-4-----------------------|
D|---4-6---4-6-4---4-6---4-6-4---6-7-6-4------6-7-6-4----6---------------------|
A|-----------------------------------------------------------------------------|
E|-----------------------------------------------------------------------------|


e|---------------------------------------------------------------------------|
B|---------------------------------------------------------------------------|
G|-6-----6-------6-----6-----------------------------------------------------|
D|---4-6---4-6-4---4-6---4-6-4-----------------------------------------------|
A|---------------------------------------------------------------------------|
E|---------------------------------------------------------------------------|

e|---------------------------------------------------------------------------|
B|---------------------------------------------------------------------------|
G|-9-------13------14------13------14------9---------------------------------|
D|-x--x8---x--x8---x--x8---x--x8---x--x8---x---------------------------------|
A|-7-------11------12------11------12------7---------------------------------|
E|---------------------------------------------------------------------------|


(Bridge)
Guitar 2 *repeat twice*
e|---------------------------------------------------------------------------|
B|---------------------------------------------------------------------------|
G|---------------------------------------------------------------------------|
D|-00000-00000-222-44444-44444-222-------------------------------------------|
A|-00000-00000-222-44444-44444-222-------------------------------------------|
E|-00000-00000-222-44444-44444-222-------------------------------------------|

(Bridge)-Guitar 1
e|---------------------------------------------------------------------------|
B|---------------------------------------------------------------------------|
G|-11-------13------14-------13------11-------9-------6-------4------9-------|
D|-x--x12---x--x4---x--x12---x--x4---x--x12---x--x4---x--x8---x-x4---x--x4---|
A|-9--------11------12-------11------9--------7-------4-------2------7-------|
E|---------------------------------------------------------------------------|



Guitar 2- pre-chorus
e|---------------------------------------------------------------------------|
B|---------------------------------------------------------------------------|
G|---------7-----------------------------------------------------------------|
D|--4------7-x8---7------2------4------0------7------2------2~---------------|
A|--4-x8---5------7-x8---2-x8---4-x8---0-x8---7-x8---2-x8---2~---------------|
E|--4-------------7------2------4------0------7------2------2~---------------|   



(chorus3) Guitar 2 *repeat twice*
e|---------------------------------------------------------------------------|
B|---------------------------------------------------------------------------|
G|---------7-----------------------------------------------------------------|
D|--4------7-x8---7------2------4------0------7------2-----------------------|
A|--4-x8---5------7-x8---2-x8---4-x8---0-x8---7-x8---2-x8--------------------|
E|--4-------------7------2------4------0------7------2-----------------------|

(chorus3) Guitar 1. (I'm only 80% on this bit, however it fits very nicely)
e|---------------------------------------------------------------------------|
B|---------------------------------------------------------------------------|
G|-6-----6-------6-----6----------------7-4-7--------7-4---------------------|
D|---4-6---4-6-4---4-6---4-6-4---6-7-6-4------6-7-6-4----6-------------------|
A|---------------------------------------------------------------------------|
E|---------------------------------------------------------------------------|

e|-----------------------------------------------------------------------------|
B|-----------------------------------------------------------------------------|
G|-6-----6-------6-----6----------------7-4-7--------7-4-----------------------|
D|---4-6---4-6-4---4-6---4-6-4---6-7-6-4------6-7-6-4----6---------------------|
A|-----------------------------------------------------------------------------|
E|-----------------------------------------------------------------------------|


e|---------------------------------------------------------------------------|
B|---------------------------------------------------------------------------|
G|-6-----6-------6-----6-----------------------------------------------------|
D|---4-6---4-6-4---4-6---4-6-4-----------------------------------------------|
A|---------------------------------------------------------------------------|

(outro) Guitar 2
e|---------------------------------------------------------------------------|
B|---------------------------------------------------------------------------|
G|---------------------------------------------------------------------------|
D|-00000-00000-222-44444-44444/----------------------------------------------|
A|-00000-00000-222-44444-44444/----------------------------------------------|
E|-00000-00000-222-44444-44444/----------------------------------------------|

(outro)- Guitar 1
e|---------------------------------------------------------------------------|
B|---------------------------------------------------------------------------|
G|-11-------13------14/------------------------------------------------------|
D|-x--x12---x--x4---x--x12---------------------------------------------------|
A|-9--------11------12/------------------------------------------------------|
E|---------------------------------------------------------------------------|
Tap to rate this tab
 
# A B C D E F G H I J K L M N O P Q R S T U V W X Y Z