Song name
# A B C D E F G H I J K L M N O P Q R S T U V W X Y Z

Tonight Alive - The Ocean tab

INTRO

Electric 1

E|----------------------|
B|----------------------|
G|----------10----------|
D|-10-12-12----12-12-12-|
A|----------------------|
D|----------------------|

Electric 2

E|---------------|
B|---------------|
G|---------------|
D|-8-7-0-8-10-12-|
A|-8-7-0-8-10-12-|
D|-8-7-0-8-10-12-|

VERSE

Electric 1

E|---------------------------------|
B|-15-x12-15-13--------------------|
G|-14-----------14-14-xaround30-12-|
D|-----------------12-----------10-|
A|---------------------------------|
D|---------------------------------|

VERSE (part 2)

Electric 1

E|-------------------------------|
B|-15-15-13-15-------------------|
G|-------------14-15-15-14-12-14-|
D|-------------------------------|
A|-------------------------------|
D|-------------------------------|

PRE-CHORUS

Electric 1

E|----------------------|
B|----------------------|
G|----------10----------|
D|-10-12-12----12-12-12-|
A|----------------------|
D|----------------------|

CHORUS

Electric 1
------------------------------------------------------------|
E|----------------------------------------------------------|
B|----------------------------------------------------------|
G|-7-9-10-12-9-5-7--7-9-10-12-9-7-9-10-9-10-12--7-9-10-17-9-|
D|-x-x-x--x--x-x-x--x-x-x--x--x-x-x-x--x-x--x---x-x-x--x--x-|
A|-5-7-8--10-7-3-5--5-7-8--10-7-5-7-8--7-8--10--5-7-8--15-7-|
D|----------------------------------------------------------|

Electric 2

E|----------------------------|
B|----------------------------|
G|----------------------------|
D|-8-10-0-7-8-10-0/12-0/12-10-|
A|-8-10-0-7-8-10-0/12-0/12-10-|
D|-8-10-0-7-8-10-0/12-0/12-10-|

VERSE (part 1)

VERSE (part 2)

PRE-CHORUS 

CHORUS

BRIDGE (part 1)

Electric 1
Clean (repeatedly)
E|-------------|
B|-------------|
G|-------14-14-|
D|----12-------|
A|-12----------|
D|-------------|

Electric 2
Clean
E|-----------|
B|-----------|
G|-----------|
D|-8-5-0-7-8-|
A|-8-5-0-7-8-|
D|-8-5-0-7-8-|

BRIDGE (part 2)

Electric 1
Clean (repeatedly)
E|-------------|
B|-------------|
G|-------14-14-|
D|----12-------|
A|-12----------|
D|-------------|

Electric 2
(fast pm)
E|----|
B|----|
G|----|
D|-12-|
A|-12-|
D|-12-|

BRIDGE (part 3)

Electric 1

E|-------------13------------------------------------|
B|-15-15-13-15----15-13-x5--/15---------12----13-/15-|
G|------------------------------14-12-14---14--------|
D|---------------------------------------------------|
A|---------------------------------------------------|
D|---------------------------------------------------|

Electric 2

E|-------------|
B|-------------|
G|-------------|
D|-8-5-0-3-8-5-|
A|-8-5-0-3-8-5-|
D|-8-5-0-3-8-5-|

CHORUS

OUTRO

Electric 1

E|----------------------|
B|----------------------|
G|----------10----------|
D|-10-12-12----12-12-12-|
A|----------------------|
D|----------------------|

Electric 2

E|-----|
B|-----|
G|-----|
D|-5-7-|
A|-5-7-|
D|-5-7-|
Tap to rate this tab
 
# A B C D E F G H I J K L M N O P Q R S T U V W X Y Z