Song name
# A B C D E F G H I J K L M N O P Q R S T U V W X Y Z

Tonight Alive - Lonely Girl tab

-------------------------------------------------------------------------------
                             Tonight Alive - Little Girl
-------------------------------------------------------------------------------
Tabbed by: Connor Smith
E-mail:connorbetts-1995@hotmail.co.uk

Tuning:Drop C

Any improvements are more then welcome! There are parts of this song that use delay, so 
you dont actually hit the all the notes
This is because you can time a delay function to repeat the note you played about 0.5 
seconds as done is here!

Yes this song IS played in drop C! Watch the video to find out!

Intro Guitar 1

D|---------------------------------------------------------------------------|
A|---------------------------------------------------------------------------|
F|-------------------------------------------------5-5-5-5-5-5-5-5-----------|
C|-3-3-3-3-3-3-3-3-0-0-0-0-0-0-0-0-7-7-7-7-7-7-7-7-5-5-5-5-5-5-5-5-----------|
G|-3-3-3-3-3-3-3-3-0-0-0-0-0-0-0-0-7-7-7-7-7-7-7-7-3-3-3-3-3-3-3-3-----------|
C|-3-3-3-3-3-3-3-3-0-0-0-0-0-0-0-0-7-7-7-7-7-7-7-7---------------------------|x2

Intro Guitar 2(lot of delay)

D|---------------------------------------------------------------------------|
A|------------------10------------------------------------13----13p12--------|
F|----9-----9-----9-------9----10-9--------9-----9-----9-----12------12------|
C|---------------------------------------------------------------------------|
G|-7-7--7-7-----7-----7-7--7-7---------7-7---7-7----7------------------------|
C|---------------------------------------------------------------------------|x2

Verse Guitar 1

D|---------------------------------------------------------------------------|
A|---------------------------------------------------------------------------|
F|---------------------------------------------------------------------------|
C|---------------------------------------------------------------------------|
G|---------------------------------2-3-3-3-3-3-3-3-5-------------------------|
C|-7-7-7-7-7-7-7-7-7-7-7-7-7-7-7-7-------------------5-5-5-5-5-5-5-----------|x4

Verse Part 2 Guitar 1

D|---------------------------------------------------------------------------|
A|---------------------------------------------------------------------------|
F|---------------------------------------------------------------------------|
C|-------5-5-5-5-5-------2-2-2-2-2-------------------------------------------|
G|---------------------------------------------------------------------------|
C|-7-7-7-----------7-7-7-----------5-5-5-5-5-5-5-5-5-5-5-5-5-5-5-5-----------|

Guitar 2 (A lot of Delay)

D|--------------------------------------------10-----------------------------|
A|-13p8h13p8---------13p8h13p8---------12p8h12---12p8h12-12p8h12-10-12p8h12--|
F|----------12121212----------12121212---------------------------------------|
C|---------------------------------------------------------------------------|
G|---------------------------------------------------------------------------|
C|---------------------------------------------------------------------------|x2

Guitar 1 Chorus

D|---------------------------------------------------------------------------|
A|---------------------------------------------------------------------------|
F|-------------------------------------------------5-5-5-5-5-5-5-5-----------|
C|-3-3-3-3-3-3-3-3-0-0-0-0-0-0-0-0-7-7-7-7-7-7-7-7-5-5-5-5-5-5-5-5-----------|
G|-3-3-3-3-3-3-3-3-0-0-0-0-0-0-0-0-7-7-7-7-7-7-7-7-3-3-3-3-3-3-3-3-----------|
C|-3-3-3-3-3-3-3-3-0-0-0-0-0-0-0-0-7-7-7-7-7-7-7-7---------------------------|x2

Guitar 2


D|---------------------------------------------------------------------------|
A|---------------------------------------------------------------------------|
F|--1414141414141414161616161616161617171717171717171919191919191919---------|
C|--x-x-x-x-x-x-x-x-x-x-x-x-x-x-x-x-x-x-x-x-x-x-x-x-x-x-x-x-x-x-x-x----------|
G|--1212121212121212141414141414141415151515151515151717171717171717---------|
C|---------------------------------------------------------------------------|

D|---------------------------------------------------------------------------|
A|----------------------------------2020202020202020-------------------------|
F|--14141414141414141616161616161616x-x-x-x-x-x-x-x-1919191919191919---------|
C|--x-x-x-x-x-x-x-x-x-x-x-x-x-x-x-x-1717171717171717x-x-x-x-x-x-x-x----------|
G|--12121212121212121414141414141414----------------1717171717171717---------|
C|---------------------------------------------------------------------------|

Chorus part 2 Guitar 1

D|----------------------------------------------------------------------------|
A|----------------------------------------------------------------------------|
F|---------------------------------------5-5-5-5-5-5-5-5----------------------|
C|-3-3------0-0--------5-7-7-7-7-7-7-7-7-5-5-5-5-5-5-5-5----------------------|
G|-3-3------0-0--------5-7-7-7-7-7-7-7-7-3-3-3-3-3-3-3-3----------------------|
C|-3-3------0-0--------3-5-5-5-5-5-5-5-5--------------------------------------|x2

Guitar 2

D|---------------------------------------------------------------------------|
A|---------------------------------------------------------------------------|
F|-----9-7------10-9-7-5-----------------------------------------------------|
C|-----x-x------x--x-x-x-----------------------------------------------------|
G|-----7-5------8--7-5-3-----------------------------------------------------|
C|---------------------------------------------------------------------------|

D|---------------------------------------------------------------------------|
A|---------------------------------------------------------------------------|
F|-----9-7------12~----------------------------------------------------------|
C|-----x-x------x------------------------------------------------------------|
G|-----7-5------10~----------------------------------------------------------|
C|---------------------------------------------------------------------------|

Bridge Guitar 1

D|---------------------------------------------------------------------------|
A|---------------------------------------------------------------------------|
F|-------------------------------------------------5-5-5-5-5-5-5-5-----------|
C|-3-3-3-3-3-3-3-3-0-0-0-0-0-0-0-0-7-7-7-7-7-7-7-7-5-5-5-5-5-5-5-5-----------|
G|-3-3-3-3-3-3-3-3-0-0-0-0-0-0-0-0-7-7-7-7-7-7-7-7-3-3-3-3-3-3-3-3-----------|
C|-3-3-3-3-3-3-3-3-0-0-0-0-0-0-0-0-7-7-7-7-7-7-7-7---------------------------|

Bridge Guitar 2(lot of delay)

D|---------------------------------------------------------------------------|
A|------------------10------------------------------------13----13p12--------|
F|----9-----9-----9-------9----10-9--------9-----9-----9-----12------12------|
C|---------------------------------------------------------------------------|
G|-7-7--7-7-----7-----7-7--7-7---------7-7---7-7----7------------------------|
C|---------------------------------------------------------------------------|

Verse 2 Guitar 1

D|---------------------------------------------------------------------------|
A|---------------------------------------------------------------------------|
F|-------------------------------------5-------5-----------------------------|
C|-----7-------7-------7-------7-------5-------5-------5-------5-------------|
G|-----7-------7-------7-------7---3-3-3-3-3-3-3-3-----5-------5-------------|
C|-7-7-7-7-7-7-7-7-7-7-7-7-7-7-7-7-----------------5-5-5-5-5-5-5-5-----------|

Guitar 2

D|---------------------------------------------------------------------------|
A|---------------------------------------------------------------------------|
F|---------------------------------------------------------------------------|
C|-7-7-7-7-7-7-7-7-7-7-7-7-7-7-7-7-2-2-2-2-2-2-2-5-0-0-0-0-0-0-0-0-----------|
G|---------------------------------------------------------------------------|
C|---------------------------------------------------------------------------|

D|---------------------------------------------------------------------------|
A|---------------------------------------------------------------------------|
F|---------------------------------------------------------------------------|
C|-7-7-7-7-7-7-7-7-7-7-7-7-7-7-7-7-9-10101010101010101410101010-9-9-9-9------|
G|---------------------------------------------------------------------------|
C|---------------------------------------------------------------------------|

Guitar 2 (a lot of delay)

D|---------12p8h12p8----------------------------10p8------------10p8---------|
A|13p8h13p8---------13p8h13p8-12p8h12p8-12p8h12-----12p8-12p8h12----12p8 ----|
F|---------------------------------------------------------------------------|
C|---------------------------------------------------------------------------|
G|---------------------------------------------------------------------------|
C|---------------------------------------------------------------------------|

Guitar 1 Chorus

D|---------------------------------------------------------------------------|
A|---------------------------------------------------------------------------|
F|-------------------------------------------------5-5-5-5-5-5-5-5-----------|
C|-3-3-3-3-3-3-3-3-0-0-0-0-0-0-0-0-7-7-7-7-7-7-7-7-5-5-5-5-5-5-5-5-----------|
G|-3-3-3-3-3-3-3-3-0-0-0-0-0-0-0-0-7-7-7-7-7-7-7-7-3-3-3-3-3-3-3-3-----------|
C|-3-3-3-3-3-3-3-3-0-0-0-0-0-0-0-0-7-7-7-7-7-7-7-7---------------------------|x2

Guitar 2


D|---------------------------------------------------------------------------|
A|---------------------------------------------------------------------------|
F|--1414141414141414161616161616161617171717171717171919191919191919---------|
C|--x-x-x-x-x-x-x-x-x-x-x-x-x-x-x-x-x-x-x-x-x-x-x-x-x-x-x-x-x-x-x-x----------|
G|--1212121212121212141414141414141415151515151515151717171717171717---------|
C|---------------------------------------------------------------------------|

D|---------------------------------------------------------------------------|
A|----------------------------------2020202020202020-------------------------|
F|--14141414141414141616161616161616x-x-x-x-x-x-x-x-1919191919191919---------|
C|--x-x-x-x-x-x-x-x-x-x-x-x-x-x-x-x-1717171717171717x-x-x-x-x-x-x-x----------|
G|--12121212121212121414141414141414----------------1717171717171717---------|
C|---------------------------------------------------------------------------|

Chorus part 2 Guitar 1

D|----------------------------------------------------------------------------|
A|----------------------------------------------------------------------------|
F|---------------------------------------5-5-5-5-5-5-5-5----------------------|
C|-3-3------0-0--------5-7-7-7-7-7-7-7-7-5-5-5-5-5-5-5-5----------------------|
G|-3-3------0-0--------5-7-7-7-7-7-7-7-7-3-3-3-3-3-3-3-3----------------------|
C|-3-3------0-0--------3-5-5-5-5-5-5-5-5--------------------------------------|

Guitar 2

D|---------------------------------------------------------------------------|
A|---------------------------------------------------------------------------|
F|-----9-7------10-9-7-5-----------------------------------------------------|
C|-----x-x------x--x-x-x-----------------------------------------------------|
G|-----7-5------8--7-5-3-----------------------------------------------------|
C|---------------------------------------------------------------------------|

D|---------------------------------------------------------------------------|
A|---------------------------------------------------------------------------|
F|-----9-7------12~----------------------------------------------------------|
C|-----x-x------x------------------------------------------------------------|
G|-----7-5------10~----------------------------------------------------------|
C|---------------------------------------------------------------------------|

Guitar 1 Bridge 2 (A lot of Delay)

D|-----------------------------------------------------------------------------------|
A|----------------------------------------------------------------------------1-1p0-0|
F|---------------0-0-0-0--------------0-0-0-0---------------0-0-0-0------------------|
C|-----5p0-2p0--------------5p0-2p0--------------5p0-3p0------------5p0-3p0----------|
G|------------3p0------------------3p0------------------2p0----------------2p0-------|
C|-3-3------------------5-5------------------2-2-2-------------3-3-3-----------------|

Guitar 1 Brudge 2

D|---------------------------------------------------------------------------|
A|---------------------------------------------------------------------------|
F|---------------------------------------------------------------------------|
C|---------------------------------------------------------------------------|
G|-3-3-3-3-3-3-3-3-3-3-3-3-3-3-3-3-5-5-5-5-5-5-5-5-5-5-5-5-5-5-5-5-----------|
C|-3-3-3-3-3-3-3-3-3-3-3-3-3-3-3-3-5-5-5-5-5-5-5-5-5-5-5-5-5-5-5-5-----------|

D|---------------------------------------------------------------------------|
A|---------------------------------------------------------------------------|
F|---------------------------------------------------------------------------|
C|---------------------------------------------------------------------------|
G|-2-2-2-2-2-2-2-2-2-2-2-2-2-2-2-2-3-3-3-3-3-3-3-3-3-3-3-3-3-3-3-3-----------|
C|-2-2-2-2-2-2-2-2-2-2-2-2-2-2-2-2-3-3-3-3-3-3-3-3-3-3-3-3-3-3-3-3-----------|

Solo Guitar 1

D|---------------------------------------------------------------------------|
A|---------------------------------------------------------------------------|
F|-------------------5-5-55-5-5-5-55-5---------------------------------------|
C|-7-7-77-7-7-7-77-7-5-5-55-5-5-5-55-5-5-5-55-5-5-5-55-5-5-5-55-5-5-5-55-5---|
G|-7-7-77-7-7-7-77-7-3-3-33-3-3-3-33-3-5-5-55-5-5-5-55-5-5-5-55-5-5-5-55-5---|
C|-7-7-77-7-7-7-77-7-------------------5-5-55-5-5-5-55-5-5-5-55-5-5-5-55-5---|

Solo Guitar 2

   T         T         T         T          T        T         T         T
D|-17p8h12p8-17p8h12p8-17p8h12p8-17p8h12p8-17p8h12p8-17p8h12p8-17p8h12p8-17p8h12p8|
A|--------------------------------------------------------------------------------|
F|--------------------------------------------------------------------------------|
C|--------------------------------------------------------------------------------|
G|--------------------------------------------------------------------------------|
C|--------------------------------------------------------------------------------|

   T         T         T         T         T         T         T         T
D|-15p8h12p8-15p8h12p8-15p8h12p8-15p8h12p8-15p8h12p8-15p8h12p8-15p8h12p8-15p8h12p8|
A|--------------------------------------------------------------------------------|
F|--------------------------------------------------------------------------------|
C|--------------------------------------------------------------------------------|
G|--------------------------------------------------------------------------------|
C|--------------------------------------------------------------------------------|

   T         T         T         T         T         T         T         T
D|-15p8h10p8-15p8h10p8-15p8h10p8-15p8h10p8-15p8h10p8-15p8h10p8-15p8h10p8-15p8h10p8|
A|--------------------------------------------------------------------------------|
F|--------------------------------------------------------------------------------|
C|--------------------------------------------------------------------------------|
G|--------------------------------------------------------------------------------|
C|--------------------------------------------------------------------------------|

   T         T         T         T         T         T         T         T
D|-15p8h10p8-15p8h10p8-15p8h10p8-15p8h10p8-15p8h10p8-15p8h10p8-15p8h10p8-15p8h10p8|
A|--------------------------------------------------------------------------------|
F|--------------------------------------------------------------------------------|
C|--------------------------------------------------------------------------------|
G|--------------------------------------------------------------------------------|
C|--------------------------------------------------------------------------------|

Guitar 1+2

D|---------------------------------------------------------------------------|
A|---------------------------------------------------------------------------|
F|---------------------------------------------------------------------------|
C|-3-3-----0-6-7~----5~------------------------------------------------------|
G|-3-3-----0-7-7~----5~------------------------------------------------------|
C|-3-3-----0-6-7~----5~------------------------------------------------------|

D|---------------------------------------------------------------------------|
A|---------------------------------------------------------------------------|
F|---------------------------------5-5-5-5-5-5-5-5---------------------------|
C|-3-3-----0-0-----7-7-7-7-7-7-7-7-5-5-5-5-5-5-5-5---------------------------|
G|-3-3-----0-0-----7-7-7-7-7-7-7-7-3-3-3-3-3-3-3-3---------------------------|
C|-3-3-----0-0-----7-7-7-7-7-7-7-7-------------------------------------------|

Chorus part 2 Guitar 1

D|----------------------------------------------------------------------------|
A|----------------------------------------------------------------------------|
F|---------------------------------------5-5-5-5-5-5-5-5----------------------|
C|-3-3------0-0--------5-7-7-7-7-7-7-7-7-5-5-5-5-5-5-5-5----------------------|
G|-3-3------0-0--------5-7-7-7-7-7-7-7-7-3-3-3-3-3-3-3-3----------------------|
C|-3-3------0-0--------3-5-5-5-5-5-5-5-5--------------------------------------|

Guitar 2

D|---------------------------------------------------------------------------|
A|---------------------------------------------------------------------------|
F|-----9-7------10-9-7-5-----------------------------------------------------|
C|-----x-x------x--x-x-x-----------------------------------------------------|
G|-----7-5------8--7-5-3-----------------------------------------------------|
C|---------------------------------------------------------------------------|

D|---------------------------------------------------------------------------|
A|---------------------------------------------------------------------------|
F|-----9-7------12~----------------------------------------------------------|
C|-----x-x------x------------------------------------------------------------|
G|-----7-5------10~----------------------------------------------------------|
C|---------------------------------------------------------------------------|

Outro Guitar 1

D|---------------------------------------------------------------------------|
A|---------------------------------------------------------------------------|
F|-------------------------------------------------5-5-5-5-5-5-5-5-----------|
C|-3-3-3-3-3-3-3-3-0-0-0-0-0-0-0-0-7-7-7-7-7-7-7-7-5-5-5-5-5-5-5-5-----------|
G|-3-3-3-3-3-3-3-3-0-0-0-0-0-0-0-0-7-7-7-7-7-7-7-7-3-3-3-3-3-3-3-3-----------|
C|-3-3-3-3-3-3-3-3-0-0-0-0-0-0-0-0-7-7-7-7-7-7-7-7---------------------------|x2

Outro Guitar 2

D|---------------------------------------------------------------------------|
A|------------------10------------------------------------13----13p12--------|
F|----9-----9-----9-------9----10-9--------9-----9-----9-----12------12------|
C|---------------------------------------------------------------------------|
G|-7-7--7-7-----7-----7-7--7-7---------7-7---7-7----7------------------------|
C|---------------------------------------------------------------------------|x2

D|---------------------------------------------------------------------------|
A|---------------------------------------------------------------------------|
F|---------------------------------------------------------------------------|
C|-3~------------------------------------------------------------------------|
G|-3~------------------------------------------------------------------------|
C|-3~------------------------------------------------------------------------|








************************************

| T   Tapping
| /   slide up
| \   slide down
| h   hammer-on
| p   pull-off
| ~   vibrato
| +   harmonic
| x   Mute note
| b   Bend
| pb  Pre-bend
| br  Bend release
| pbr Pre-bend release
| brb Bend release bend
Tap to rate this tab
# A B C D E F G H I J K L M N O P Q R S T U V W X Y Z