Song name
# A B C D E F G H I J K L M N O P Q R S T U V W X Y Z

Tonight Alive - The Fire tab

Tonight Alive
The Fire
The Other Side
2013
Submitted by: jeremyunderground41@yahoo.com

Key: Bb

Tuning: Standard EADGBe

Chords used:
Gm -  355333
Eb -  x68886
Bb -  x13331
F -   133211
Dm -  xx0231
F/A - 032xxx


Intro:

Guitar 1: Jake
Gm--Eb-- x2

Guitar 2: Whakaio

Pluck the strings fast
e|-------------13----------|
B|----11-10-11----11-10-11-|
G|-12----------------------|
D|-------------------------| x8
A|-------------------------|
E|-------------------------|


Verse 1:
Gm
  Patiently I was waiting
             F/A
Just waiting for
            Eb
this day to come
Gm
  To say how much I
hated Those days yeah
F/A            Eb
each and every one
      F
But I made it out alive
            Eb
I知 here to say I
breathe at least I try
F
I won稚 go without a
      Dm        (hold)
fight You can稚 stop me


Chorus 1:
Eb          F   Gm
I feel like I知 tied
            Bb
And way too heavy
    Eb        F     Gm
And I think I could fly
     F(Hold)
I値l take you with me


Post Chorus:

Guitar 1: Jake
Gm--Eb-- x2

Guitar 2: Whakaio

Pluck the strings fast
e|-------------13----------|
B|----11-10-11----11-10-11-|
G|-12----------------------|
D|-------------------------| x8
A|-------------------------|
E|-------------------------|


Verse 2:
Gm
  Blame to me I resisted
             F/A
The change I knew
         Eb
I had to make
   Gm
But  the fire

still existed
             F/A
I learn from each
         Eb
of my mistakes uhhhm
      F
But I made it out alive
            Eb
I知 here to say I
breathe at least I try
F
I won稚 go without a
      Dm        (hold)
fight You can稚 stop me


Chorus 2:
Eb          F   Gm
I feel like I知 tied
            Bb
And way too heavy
    Eb        F     Gm
And I think I could fly
     F
I値l take you with me


Breakdown:

Jake: x2
                         Gm
e|---------------------------------------------------|
B|---------------------------------------------------|
G|---------------------------------------------------|
D|-5--5-5--5-5----------------5--5-5--5-5------------|
A|-5--5-5--5-5------5-3-------5--5-5--5-5------5-3---|
E|-3--3-3--3-3--3-6-----6--1--3--3-3--3-3--3-6-----6-|

              Eb                              F
e|---------------------------|------------------------------|
B|---------------------------|------------------------------|
G|-8--8-8--8-8---------------|------------------------------|
D|-8--8-8--8-8---------------|-3--3-3--3-3------------------|
A|-6--6-6--6-6------5-3------|-3--3-3--3-3--5-3---3-5-3-----|
E|--------------3-6-----6--1-|-1--1-1--1-1------6-------6-5-|


Whakaio: will enter at 2nd time
  p=pull off, h=hammer
e|---------------------------------|
B|---------------------------------|
G|-7p0h8p0h7p0h5p0h7p0h5p0h3p0h5p0- x4
D|---------------------------------|
A|---------------------------------|
E|---------------------------------|


Chorus 3:
Eb          F   Gm
I feel like I知 tied
    Gm
And way too heavy
    Eb        F     Gm
And I think I could fly
     F
I値l take you with me
Eb Dm Eb F Gm F
ahhhh
     Gm            F
I値l take you with me
Eb Dm Eb F Gm
ahhhh
     F(Hold)
I値l take you with me


Whakaio: at "ahh I'll take you with me"
e|-6-5-----6-5-----6-5-----6-5-----|
B|-----6-------6-------6-------6---|
G|-------7-------7-------7-------7-|
D|---------------------------------| x2
A|---------------------------------|
E|---------------------------------|

e|-3-------3-------3-------3-------|
B|---------------------------------|
G|---3-2-3---3-2-3---3-2-3---3-2-3-|
D|---------------------------------| x2
A|---------------------------------|
E|---------------------------------|

e|-6-5-----6-5-----6-5-----6-5-----|
B|-----6-------6-------6-------6---|
G|-------7-------7-------7-------7-|
D|---------------------------------| x2
A|---------------------------------|
E|---------------------------------|

e|-3-------3-------3-------3-------|
B|---------------------------------|
G|---3-2-3---3-2-3---3-2-3---3-2-3-|
D|---------------------------------|
A|---------------------------------|
E|---------------------------------|
Tap to rate this tab
# A B C D E F G H I J K L M N O P Q R S T U V W X Y Z