Song name
# A B C D E F G H I J K L M N O P Q R S T U V W X Y Z

Tonight Alive - Hell And Back tab

Hell and back almost perfect sorry if theres any errors im doing this late at night 
DROP D TUNING!!
Enjoy! :)

Verse Rhythm
Too tired to write this properly. x=repeat so follow that and the second time through is quieter.
e|-------------------------------------------------------------------|x2
B|-------------------------------------------------------------------|x2
G|-----5--x4------5---x2------5---------5----------------------------|x2
D|---3----x4----3-----x2----3-----3---3------------------------------|x2
A|-3------x4--1-------x2--3-----3---1--------------------------------|x2
D|-------------------------------------------------------------------|x2

Verse Lead
On the second time through of the verse rhythm, lead plays this. You have to work out
how many times each note is played.
e|---------------------------------------------------------------|
B|-10--11--13--8----11--8-8h10-10--8-----------------------------|
G|---------------------------------------------------------------|
D|---------------------------------------------------------------|
A|---------------------------------------------------------------|
D|---------------------------------------------------------------|

Chorus Rhythm
e|---------------------------------------------------------------|
B|---------------------------------------------------------------|
G|-3--------5-x2-------------------------------------------------|
D|-3--3--0--5-x2-------------------------------------------------|
A|-1--3--0--3-x2-------------------------------------------------|
D|----3--0----x2-------------------------------------------------|

Chorus Lead
Play the first bit 3 times and end on next except for the second time round
e|----------------------13--------------------------- ---------------|x2
B|---10----x3----10--------------------------------------------------|x2
G|-7----10-x3--7----10-----------------------------------------------|x2
D|-------------------------------------------------------------------|x2
A|-------------------------------------------------------------------|x2

Bit after chorus Rhythm
e|-------------------------------------------------------------------|x2
B|-------------------------------------------------------------------|x2
G|-3-----5-----------------------------------------------------------|x2
D|-3--0--5-----------------------------------------------------------|x2
A|-1--0--3-----------------------------------------------------------|x2
D|----0--------------------------------------------------------------|x2

Bit after chorus Lead
you have to work out the strumming
e|-------------------------------------------------------------------|x2
B|-------------------------------------------------------------------|x2
G|-14--15--17--14--14--15--17--14--12--10--9-------------------------|x2
G|-------------------------------------------------------------------|x2
A|-12--13--15--12--12--13--15--12--10--8---7-------------------------|x2
D|-------------------------------------------------------------------|x2

Verse 2 Lead
You have to work out how many times each note is played.
e|--------------------------------------------------------------------|
B|-10--11--13--8----8--13--8-10-11s13-10--8---------------------------|
G|---------------10---------------------------------------------------|
D|--------------------------------------------------------------------|
A|--------------------------------------------------------------------|
D|--------------------------------------------------------------------|

Prechorus Lead
ALL PALM MUTED!!! Fairly quick but not to hard to play :)
e|----------------------------------------------------------------------|
B|-----------10------x4------------------10------x4-------10x8----------|
G|------8-10----10-8-x4--10x16------8-10----10-8-x4--10x8---------------|
D|-8-10--------------x4--------8-10--------------x4---------------------|
A|----------------------------------------------------------------------|
D|----------------------------------------------------------------------|

Chorus Rhtyhm and lead played again

Solo sort of Lead
e|--13-12-------12-----13-12-------12---------------------------------------|
B|--------13s15----10--------13s15-------10s11s13-13-13-10s8s10-10-10-8-10-3|
G|------------------------------------10------------------------------------|
D|--------------------------------------------------------------------------|
A|--------------------------------------------------------------------------|
D|--------------------------------------------------------------------------|

After Solo
when you play c power chord palm mute and play about 8 times
                   p.m.
e|----------------------------------------------------------------------|
B|----------------------------------------------------------------------|
G|-----------------5----------------------------------------------------|
D|-0----3--0----3--5----------------------------------------------------|
A|-0--3----0--0----3----------------------------------------------------|
D|-0-------0------------------------------------------------------------|

Chorus Rhythm and lead

Rhythm
e|-------------------------------------------------------------------|x2
B|-------------------------------------------------------------------|x2
G|-3-----5-----------------------------------------------------------|x2
D|-3--0--5-----------------------------------------------------------|x2
A|-1--0--3-----------------------------------------------------------|x2
D|----0--------------------------------------------------------------|x2

Lead
you have to work out the strumming
e|-------------------------------------------------------------------|x2
B|-------------------------------------------------------------------|x2
G|-14--15--17--14--14--15--17--14--12--10--9-------------------------|x2
G|-------------------------------------------------------------------|x2
A|-12--13--15--12--12--13--15--12--10--8---7-------------------------|x2
D|-------------------------------------------------------------------|x2

ending with drum fade out
e|-------------------------------------------------------------------|x2
B|-------------------------------------------------------------------|x2
G|---------5---------------------------------------------------------|x2
D|-------3-----------------------------------------------------------|x2
A|-----3-------------------------------------------------------------|x2
D|-------------------------------------------------------------------|x2
Tap to rate this tab
 
# A B C D E F G H I J K L M N O P Q R S T U V W X Y Z