Song name
# A B C D E F G H I J K L M N O P Q R S T U V W X Y Z

Tonight Alive - Breaking And Entering Acoustic tab

Tonight Alive - Breaking and Entering Acoustic

tabbed from http://www.youtube.com/watch?v=WIF07gphvEA
 
Standard tuning

intro
e|----------------|----------------|----------------|----------------|
b|----------------|----------------|----------------|----------------|
g|----------------|-8-8-8-8-8-8-8-8|-6-6-6-6-6-6-6-6|-8-8-8-8-8-8-8-8|
d|-3-3-3-3-3-3-3-3|-8-8-8-8-8-8-8-8|-6-6-6-6-6-6-6-6|-8-8-8-8-8-8-8-8| x2
a|-3-3-3-3-3-3-3-3|-6-6-6-6-6-6-6-6|-4-4-4-4-4-4-4-4|-6-6-6-6-6-6-6-6|
E|-1-1-1-1-1-1-1-1|----------------|----------------|----------------|

verse
e|----------------|----------------|----------------|----------------|
b|----------------|----------------|----------------|----------------|
g|----------------|-5~-------------|----------------|-8~-------------|
d|-3~-------------|-5~-------------|-8~-------------|-8~-------------|
a|-3~-------------|-3~-------------|-8~-------------|-6~-------------|
E|-1~-------------|----------------|-6~-------------|----------------|

e|----------------|----------------|----------------|----------------| -----| -----|  
b|----------------|----------------|----------------|----------------| -----| -----|
g|----------------|-8-8-8-8-8-8-8-8|----------------|-8-8-8-8-8-8-8-8| -6~--| -5~--|
d|-3-3-3-3-3-3-3-3|-8-8-8-8-8-8-8-8|-8-8-8-8-8-8-8-8|-8-8-8-8-8-8-8-8| -6~--| -5~--|
a|-3-3-3-3-3-3-3-3|-6-6-6-6-6-6-6-6|-8-8-8-8-8-8-8-8|-6-6-6-6-6-6-6-6| -4~--| -3~--|
E|-1-1-1-1-1-1-1-1|----------------|-6-6-6-6-6-6-6-6|----------------| -----| -----|

chorus
e|------------------|--------------------|-----------------|----------------|
b|------------------|--------------------|-----------------|----------------|
g|------------------|-8-8-8-x-x-8-8-8-8-8|-----------------|-6-6-6-6-8-8-8-8|
d|-3-3-3-x-x-3-3-3-3|-8-8-8-x-x-8-8-8-8-8|-6-6-6-6-6-6-6-6-|-6-6-6-6-8-8-8-8| x2
a|-3-3-3-x-x-3-3-3-3|-6-6-6-x-x-6-6-6-6-6|-6-6-6-6-6-6-6-6-|-4-4-4-4-6-6-6-6|
E|-1-1-1-x-x-1-1-1-1|--------------------|-4-4-4-4-4-4-4-4-|----------------|

verse 2
e|----------------|----------------|----------------|----------------|
b|----------------|----------------|----------------|----------------|
g|----------------|-5~-------------|----------------|-8~-------------|
d|-3~-------------|-5~-------------|-8~-------------|-8~-------------|
a|-3~-------------|-3~-------------|-8~-------------|-6~-------------|
E|-1~-------------|----------------|-6~-------------|----------------|

e|----------------|----------------|----------------|----------------| -----| -----| -----| -----|
b|----------------|----------------|----------------|----------------| -----| -----| -----| -----|
g|----------------|-8-8-8-8-8-8-8-8|----------------|-8-8-8-8-8-8-8-8| -6~--| -8~--| -3~--| -5~--|
d|-3-3-3-3-3-3-3-3|-8-8-8-8-8-8-8-8|-8-8-8-8-8-8-8-8|-8-8-8-8-8-8-8-8| -6~--| -8~--| -3~--| -5~--|
a|-3-3-3-3-3-3-3-3|-6-6-6-6-6-6-6-6|-8-8-8-8-8-8-8-8|-6-6-6-6-6-6-6-6| -4~--| -6~--| -1~--| -3~--|
E|-1-1-1-1-1-1-1-1|----------------|-6-6-6-6-6-6-6-6|----------------| -----| -----| -----| -----|


chorus 2
e|------------------|--------------------|-----------------|----------------|
b|------------------|--------------------|-----------------|----------------|
g|------------------|-8-8-8-x-x-8-8-8-8-8|-----------------|-6-6-6-6-8-8-8-8|
d|-3-3-3-x-x-3-3-3-3|-8-8-8-x-x-8-8-8-8-8|-6-6-6-6-6-6-6-6-|-6-6-6-6-8-8-8-8| x2
a|-3-3-3-x-x-3-3-3-3|-6-6-6-x-x-6-6-6-6-6|-6-6-6-6-6-6-6-6-|-4-4-4-4-6-6-6-6|
E|-1-1-1-x-x-1-1-1-1|--------------------|-4-4-4-4-4-4-4-4-|----------------|

e|----------------|-----------|----------------|-----------|
b|----------------|-----------|----------------|-----------|
g|----------------|-8-8--8--8-|-6-6-6-6-6-6-6-6|-8-8--8--8-|
d|-3-3-3-3-3-3-3-3|-8-8--8--8-|-6-6-6-6-6-6-6-6|-8-8--8--8-| x2
a|-3-3-3-3-3-3-3-3|-6-6--6--6-|-4-4-4-4-4-4-4-4|-6-6--6--6-|
E|-1-1-1-1-1-1-1-1|-----------|----------------|-----------|

bridge
e|---------|----------|----------|----------|
b|---------|----------|----------|----------|
g|-6~------|-8~-------|----------|----------|
d|-6~------|-8~-------|-3~-------|-6~-------| x2
a|-4~------|-6~-------|-3~-------|-6~-------|
E|---------|----------|-1~-------|-4~-------|

gentle strumming
e|----------------|-----------------|----------------|----------------|
b|----------------|-----------------|----------------|----------------|
g|-6-6-6-6-6-6-6-6|-8-8-8-8-8-8-8-8-|----------------|-5-5-5-5-5-5-5-5|
d|-6-6-6-6-6-6-6-6|-8-8-8-8-8-8-8-8-|-3-3-3-3-3-3-3-3|-5-5-5-5-5-5-5-5| x2
a|-4-4-4-4-4-4-4-4|-6-6-6-6-6-6-6-8-|-1-1-1-1-1-1-1-1|-3-3-3-3-3-3-3-3|
E|----------------|-----------------|-1-1-1-1-1-1-1-1|----------------|

pre-chorus
e|----------------|----------------|----------------|----------------|
b|----------------|----------------|----------------|----------------|
g|----------------|-8~-------------|----------------|-8~-------------|
d|-3~-------------|-8~-------------|-8~-------------|-8~-------------|
a|-3~-------------|-6~-------------|-8~-------------|-6~-------------|
E|-1~-------------|----------------|-6~-------------|----------------|

chorus 3
e|------------------|--------------------|-----------------|----------------|
b|------------------|--------------------|-----------------|----------------|
g|------------------|-8-8-8-x-x-8-8-8-8-8|-----------------|-6-6-6-6-8-8-8-8|
d|-3-3-3-x-x-3-3-3-3|-8-8-8-x-x-8-8-8-8-8|-6-6-6-6-6-6-6-6-|-6-6-6-6-8-8-8-8| x1
a|-3-3-3-x-x-3-3-3-3|-6-6-6-x-x-6-6-6-6-6|-6-6-6-6-6-6-6-6-|-4-4-4-4-6-6-6-6|
E|-1-1-1-x-x-1-1-1-1|--------------------|-4-4-4-4-4-4-4-4-|----------------|

e|----------------|-----------|----------------|-----------|
b|----------------|-----------|----------------|-----------|
g|----------------|-8-8--8--8-|-6-6-6-6-6-6-6-6|-8-8--8--8-|
d|-3-3-3-3-3-3-3-3|-8-8--8--8-|-6-6-6-6-6-6-6-6|-8-8--8--8-| x4 
a|-3-3-3-3-3-3-3-3|-6-6--6--6-|-4-4-4-4-4-4-4-4|-6-6--6--6-|
E|-1-1-1-1-1-1-1-1|-----------|----------------|-----------|

end on
e|------|
b|------|
g|------|
d|-3~---|
a|-3~---|
E|-1~---|
Tap to rate this tab
# A B C D E F G H I J K L M N O P Q R S T U V W X Y Z