Song name
# A B C D E F G H I J K L M N O P Q R S T U V W X Y Z

Tonight Alive - Ten Times Better tab

Intro (Guitar 1)
E|--10---9---------------10---9-------9-------10---9-------------------------10-10--9|
B|-----7---7--10--7---7-----7---7--10---10--7----7---7--10--7---7--10--7---7---------|
G|------------------9-----------------------------------------9----------9-----------|
D|-----------------------------------------------------------------------------------|
A|-----------------------------------------------------------------------------------|
D|-----------------------------------------------------------------------------------|

Intro (Guitar 2)
E|------------------------------------------------------------|
B|------------------------------------------------------------|
G|---------------------------------------------77-77----------|
D|--5-5-55-55-55--77-77-77-77-77--99-99-99-99--77-77-55-55----|
A|--5-5-55-55-55--77-77-77-77-77--99-99-99-99--55-55-55-55----|
D|--5-5-55-55-55--77-77-77-77-77--99-99-99-99--------55-55----|

Verse 1 (Guitar 2)
E|-----------------------------------|
B|-----------------------------------|
G|-----------------------------------|
D|--5-55-55-55-55--99-99-97-77-77----|
A|--5-55-55-55-55--99-99-97-77-77----|
D|--5-55-55-55-55--99-99-97-77-77----|

Pre-Chorus 1 (Guitar 2)
E|-----------------------------------|
B|-----------------------------------|
G|----------11-11-11/14-14-----------|
D|--5555-55-x--x--x--x--x------------|
A|--5555-55-9--9--9-/12-12-----------|
D|--5555-55--------------------------|
    **** **
E|-----------------------------------|
B|-----------------------------------|
G|----------9--9--9/-7--7------------|
D|--9999-99-x--x--x--x--x------------|
A|--9999-99-7--7--7/-5--5------------|
D|--9999-99--------------------------|
    **** **
Chorus 1 (Guitar 1)
E|-------------------------------------------------|
B|-------------------------------------------------|
G|--7-7-7-14--9-9-9-14--7-7-7-14--9-7-9-7-9-11-7---|
D|--x-x-x-x---x-x-x-x---x-x-x-x---x-x-x-x-x-x--x---|
A|--5-5-5/12--7-7-7/12--5-5-5/12--7/5-7/5-7/9/-5---|
D|-------------------------------------------------|

E|------------------------------------|
B|------------------------------------|
G|--7-7-7-14--9-9-9-14--7-7-7-14--9---|
D|--x-x-x-x---x-x-x-x---x-x-x-x---x---|
A|--5-5-5/12--7-7-7/12--5-5-5/12--7---|
D|------------------------------------|

Chorus 1 (Guitar 2)
E|----------------------------------------|
B|----------------------------------------|
G|--------7-------6--------7--------------|
D|--5555--x-7777--x--9999--x--77777777----|
A|--5555--5-7777--4--9999--5--77777777----|
D|--5555----7777-----9999-----77777777----|

E|----------------------------------|
B|----------------------------------|
G|--------7-------6--------7--------|
D|--5555--x-7777--x--9999--x--7-7---|
A|--5555--5-7777--4--9999--5--7-7---|
D|--5555----7777-----9999-----7-7---|

Verse 2 (Guitar 1)
E|------------------------------------------|
B|------------------------------------------|
G|--7-7-7-7--7-7-7-7/-11-11-11-11-9-9-9-9---|
D|--x-x-x-x--x-x-x-x--x--x--x--x--x-x-x-x---|
A|--5-5-5-5--5-5-5-5/-9--9--9--9--7-7-7-7---|
D|------------------------------------------|

Verse 2 (Guitar 2)
E|-----------------------------------|
B|-----------------------------------|
G|-----------------------------------|
D|--5-55-55-55-55--99-99-97-77-77----|
A|--5-55-55-55-55--99-99-97-77-77----|
D|--5-55-55-55-55--99-99-97-77-77----|

Pre-Chorus 2 (Guitar 1)
E|--------------------|
B|--------------------|
G|--14-14/-9/-11/-7---|
D|--x--x---x--x---x---|
A|--12-12/-7/-9-/-5---|
D|--------------------|

Pre-Chorus 2 (Guitar 2)
E|-----------------------------------|
B|-----------------------------------|
G|----------11-11-11/14-14-----------|
D|--5555-55-x--x--x--x--x------------|
A|--5555-55-9--9--9-/12-12-----------|
D|--5555-55--------------------------|
    **** **
E|-----------------------------------|
B|-----------------------------------|
G|----------9--9--9/-7--7------------|
D|--9999-99-x--x--x--x--x------------|
A|--9999-99-7--7--7/-5--5------------|
D|--9999-99--------------------------|
    **** **
Chorus 2 (Guitar 1)
E|-------------------------------------------------|
B|-------------------------------------------------|
G|--7-7-7-14--9-9-9-14--7-7-7-14--9-7-9-7-9-11-7---|
D|--x-x-x-x---x-x-x-x---x-x-x-x---x-x-x-x-x-x--x---|
A|--5-5-5/12--7-7-7/12--5-5-5/12--7/5-7/5-7/9/-5---|
D|-------------------------------------------------|

E|------------------------------------|
B|------------------------------------|
G|--7-7-7-14--9-9-9-14--7-7-7-14--9---|
D|--x-x-x-x---x-x-x-x---x-x-x-x---x---|
A|--5-5-5/12--7-7-7/12--5-5-5/12--7---|
D|------------------------------------|

Chorus 2 (Guitar 2)
E|----------------------------------------|
B|----------------------------------------|
G|--------7-------6--------7--------------|
D|--5555--x-7777--x--9999--x--77777777----|
A|--5555--5-7777--4--9999--5--77777777----|
D|--5555----7777-----9999-----77777777----|

E|----------------------------------|
B|----------------------------------|
G|--------7-------6--------7--------|
D|--5555--x-7777--x--9999--x--7-7---|
A|--5555--5-7777--4--9999--5--7-7---|
D|--5555----7777-----9999-----7-7---|

Bridge Part 1 (Guitar 1)
E|-----------------------------------------------------------------------------------|
B|--------------------15-15-15-14-14-14-----------------------------15-15-15-14-14-14|
G|-----------16-16-16--------------------------------------16-16-16------------------|
D|--16-16-16----------------------------16-16-16--14-14-14---------------------------|
A|-----------------------------------------------------------------------------------|
D|-----------------------------------------------------------------------------------|

E|-----------|
B|-----------|
G|-----------|
D|--14-14-14-|
A|-----------|
D|-----------|

E|-----------------------------------------------------------------------------------|
B|--------------------15-15-15-14-14-14-----------------------------15-15-15-14-14-14|
G|-----------16-16-16--------------------------------------16-16-16------------------|
D|--12-12-12----------------------------12-12-12--11-11-11---------------------------|
A|-----------------------------------------------------------------------------------|
D|-----------------------------------------------------------------------------------|
Bridge Part 2 (Guitar 1)
 (Not sure about this part)
E|--10---9-------9--------|--15-15-15-14-14-14--------------------|--------------|
B|-----7---7--10---10--7--|--------------------15-15-15-17-17-17--|--12~~15~~14~~|
G|------------------------|---------------------------------------|--------------|
D|------------------------|---------------------------------------|--------------|
A|------------------------|---------------------------------------|--------------|
E|------------------------|---------------------------------------|--------------|
Bridge Part 2 (Guitar 2)
E|-------------------------------------------------------|-----------|
B|-------------------------------------------------------|-----------|
G|----------------------------77-77-77-77----------------|-----------|
D|--99-99-99-99--55-55-55-55--77-77-77-77--77-77-77-77---|--5~~9~~7~~|
A|--99-99-99-99--55-55-55-55--55-55-55-55--77-77-77-77---|--5~~9~~7~~|
D|--99-99-99-99--55-55-55-55---------------77-77-77-77---|--5~~9~~7~~|

Chorus 3 (Guitar 1)
E|-----------------------------------------|
B|-----------------------------------------|
G|--7-7-7-7--9-9-9-9--11-11-11-11-9-9-9-9--|
D|--x-x-x-x--x-x-x-x--x--x--x--x--x-x-x-x--|
A|--5-5-5-5--7-7-7-7--9--9--9--9--7-7-7-7--|
D|-----------------------------------------|

E|-----------------------------------------------------------------------------
B|--15-15-15-15-15-15-15-15--14-14-14-14-14-14h15p14--12-12-12-12-12-12-12-12--
G|-----------------------------------------------------------------------------
D|-----------------------------------------------------------------------------
A|-----------------------------------------------------------------------------
D|-----------------------------------------------------------------------------
 
  --------14-14--------|
  --15-15-------15-15--|
  ---------------------|
  ---------------------|
  ---------------------|
  ---------------------|

E|---------------------------------------------------------------------------------|
B|--15-15-15-15-15-15-15-15--14-14-14-14-14-14h15p14--12-12-12-12-12-12-12-12------|
G|-----------------------------------------------------------------------------11~~|
D|---------------------------------------------------------------------------------|
A|---------------------------------------------------------------------------------|
D|---------------------------------------------------------------------------------|

Chorus 3 (Guitar 2)
E|--------|
B|--------|
G|--7~----|
D|--7~-7--|
A|--5~-7--|
D|-----7--|

E|--------------------------|
B|--------------------------|
G|--------------------------|
D|--5555--7777--9999--7777--|
A|--5555--7777--9999--7777--|
D|--5555--7777--9999--7777--|

Outro (Guitar 1)
E|--10---9---------------10---9-------9-------10---9-------------------------10-10--9|
B|-----7---7--10--7---7-----7---7--10---10--7----7---7--10--7---7--10--7---7---------|
G|------------------9-----------------------------------------9----------9-----------|
D|-----------------------------------------------------------------------------------|
A|-----------------------------------------------------------------------------------|
D|-----------------------------------------------------------------------------------|

Outro (Guitar 2)
E|------------------------------------------------------------|
B|------------------------------------------------------------|
G|---------------------------------------------77-77----------|
D|--5-5-55-55-55--77-77-77-77-77--99-99-99-99--77-77-55-55----|
A|--5-5-55-55-55--77-77-77-77-77--99-99-99-99--55-55-55-55----|
D|--5-5-55-55-55--77-77-77-77-77--99-99-99-99--------55-55----|
Tap to rate this tab
# A B C D E F G H I J K L M N O P Q R S T U V W X Y Z