Song name
# A B C D E F G H I J K L M N O P Q R S T U V W X Y Z

Tonight Alive - The Edge tab

Intro (lead)

Tonight Alive's new single please leave any comments below and give a rate.



d|-----------------------------------------------------------------|
A|-131313------171717------1313----131313------171717------17b18r17|
F|-------141414------141414----1414------141414------141414--------|
C|-----------------------------------------------------------------|
G|-----------------------------------------------------------------|
C|-----------------------------------------------------------------|

d|-----------------------------------------------------------------|
A|-131313------171717------1313----121212------151515------13131212|
F|-------141414------141414----1414------121212------121212--------|
C|-----------------------------------------------------------------|
G|-----------------------------------------------------------------|
C|-----------------------------------------------------------------|

d|------------------------------------------------------------------|
A|-------------171717---------------------------171717------17b18r17|
F|-141414------------14141417171616-141414------------141414--------|
C|-------141414---------------------------141414--------------------|
G|------------------------------------------------------------------|
C|------------------------------------------------------------------|

rhythm

d|-------------------------------------------------------------------------|
A|-------------------------------------------------------------------------|
F|-------------------------------------------------------------------------|
C|-3-3-3-3-33--0-0-0-0-00--7-7-7-7-77--5-5-5-5-55---3-3-3-3-33---0-0-0-0-00|
G|-3-3-3-3-33--0-0-0-0-00--7-7-7-7-77--5-5-5-5-55---3-3-3-3-33---0-0-0-0-00|
C|-3-3-3-3-33--0-0-0-0-00--7-7-7-7-77--5-5-5-5-55---3-3-3-3-33---0-0-0-0-00|

Verse(clean)

d|---------------------------------------------------------------|
A|-------10--------10--------10---------10-----------------------|
F|----------9---------9---------9----------9---------------------|
C|---7-7-------77------------------------------------------------|
G|-----------------------8-8------10-10--------------------------|
C|---------------------------------------------------------------|

d|-----0-----------3---------------------------------------------|
A|----------6----------6-------5-------5-------------------------|
F|-5-----5-----5-----------------5-------5-----------------------|
C|---3---------------------5-5-----5-5---------------------------|
G|---------------------------------------------------------------|
C|---------------------------------------------------------------|

Second time round (palm mute) rhythm

d|---------------------------------------------------------------|
A|---------------------------------------------------------------|
F|---------------------------------------------------------------|
C|---------------------------------------------------------------|
G|---------------------------------------------------------------|
C|---7x16--3x8---5x8---3x16---5x16-------------------------------|

Chorus Lead (On ska beats)

d|--17-17-17-17-17-17-17-17-13-13-13-13--------------------------|
A|--------------------------------------15-15-15-15--------------|
F|---------------------------------------------------------------|
C|---------------------------------------------------------------|
G|---------------------------------------------------------------|
C|---------------------------------------------------------------|

d|--17-17-17-17-17-17-17-17-13-13-13-13-15-15--------------------|
A|---------------------------------------------------------------|
F|---------------------------------------------------------------|
C|---------------------------------------------------------------|
G|---------------------------------------------------------------|
C|---------------------------------------------------------------|

Rhythm

d|---------------------------------------------------------------|
A|---------------------------------------------------------------|
F|---------------------------------------------------------------|
C|-7-7-7-7-3-3-00-00---------------------------------------------|
G|-7-7-7-7-3-3-00-00---------------------------------------------|
C|-7-7-7-7-3-3-00-00---------------------------------------------|x2

Lead Chorus part 2

d|-----------------------------------------------------------------|
A|-131313------171717------1313----131313------171717------12121313|
F|-------141414------141414----1414------141414------141414--------|
C|-----------------------------------------------------------------|
G|-----------------------------------------------------------------|
C|-----------------------------------------------------------------|x2

Rhythm Chorus part 2

d|---------------------------------------------------------------|
A|---------------------------------------------------------------|
F|---------------------------------------------------------------|
C|-3-3-3-3-7-77-7-5-5-5------------------------------------------|
G|-3-3-3-3-7-77-7-5-5-5------------------------------------------|
C|-3-3-3-3-7-77-7-5-5-5------------------------------------------|

After first Chorus Lead

d|---17p12-17p12-17-20-20p19-20p19-17-12-------------------------|
A|---------------------------------------------------------------|
F|---------------------------------------------------------------|
C|---------------------------------------------------------------|
G|---------------------------------------------------------------|
C|---------------------------------------------------------------|

d|---17p12-17p12-17p12-17p12-15p12-15p12-15p12-15p12-------------|
A|---------------------------------------------------------------|
F|---------------------------------------------------------------|
C|---------------------------------------------------------------|
G|---------------------------------------------------------------|
C|---------------------------------------------------------------|

Rhythm

d|---------------------------------------------------------------|
A|---------------------------------------------------------------|
F|---------------------------------------------------------------|
C|--3----------7-------5-----------------------------------------|
G|--3----------7-------5-----------------------------------------|
C|--3----------7-------5-----------------------------------------|

d|---------------------------------------------------------------|
A|---------------------------------------------------------------|
F|---------------------------------------------------------------|
C|--3----------7-------5-5-5-5-5---------------------------------|
G|--3----------7-------5-5-5-5-5---------------------------------|
C|--3----------7-------5-5-5-5-5---------------------------------|

Solo Lead

d|---------------------------------------------------------------|
A|--1717171717171717171717171717b1817----------------------------|
F|---------------------------------------------------------------|
C|---------------------------------------------------------------|
G|---------------------------------------------------------------|
C|---------------------------------------------------------------|x2

d|-------------------------------------------------------------------|
A|--13131313131313131313131313131313-15151515151515151515151515151515|
F|-------------------------------------------------------------------|
C|-------------------------------------------------------------------|
G|-------------------------------------------------------------------|
C|-------------------------------------------------------------------|

Rhythm

d|---------------------------------------------------------------|
A|---------------------------------------------------------------|
F|---------------------------------------------------------------|
C|0-0-0------3-3-3-----7-7-7----5-5-5----------------------------|
G|0-0-0------3-3-3-----7-7-7----5-5-5----------------------------|
C|0-0-0------3-3-3-----7-7-7----5-5-5----------------------------|

d|---------------------------------------------------------------|
A|---------------------------------------------------------------|
F|---------------------------------------------------------------|
C|0-0-0------3-3-3-----7-7-7----5-5-5--5-5-5---------------------|
G|0-0-0------3-3-3-----7-7-7----5-5-5--5-5-5---------------------|
C|0-0-0------3-3-3-----7-7-7----5-5-5--5-5-5---------------------|

After Solo (clean)

d|---------------------------------------------------------------|
A|-------10--------10--------10---------10-----------------------|
F|----------9---------9---------9----------9---------------------|
C|---7-7-------77------------------------------------------------|
G|-----------------------8-8------10-10--------------------------|
C|---------------------------------------------------------------|

Last Chorus Both Guitars

d|---------------------------------------------------------------|
A|---------------------------------------------------------------|
F|---------------------------------------------------------------|
C|-3-3-3-3-7-77-7-5-5-5------------------------------------------|
G|-3-3-3-3-7-77-7-5-5-5------------------------------------------|
C|-3-3-3-3-7-77-7-5-5-5------------------------------------------|

Chorus Part 2 Lead

d|---17p12-17p12-17-20-20p19-20p19-17-12-------------------------|
A|---------------------------------------------------------------|
F|---------------------------------------------------------------|
C|---------------------------------------------------------------|
G|---------------------------------------------------------------|
C|---------------------------------------------------------------|

d|---17p12-17p12-17p12-17p12-15p12-15p12-15p12-15p12-------------|
A|---------------------------------------------------------------|
F|---------------------------------------------------------------|
C|---------------------------------------------------------------|
G|---------------------------------------------------------------|
C|---------------------------------------------------------------|

rhythm

d|---------------------------------------------------------------|
A|---------------------------------------------------------------|
F|---------------------------------------------------------------|
C|-7-7-7-7-7-7-7-7-3-3-3-3-0-0-0-0-------------------------------|
G|-7-7-7-7-7-7-7-7-3-3-3-3-0-0-0-0-------------------------------|
C|-7-7-7-7-7-7-7-7-3-3-3-3-0-0-0-0-------------------------------|x2

d|---------------------------------------------------------------|
A|---------------------------------------------------------------|
F|---------------------------------------------------------------|
C|-7-7-7-7-7-7-7-7-3-3-3-3-0-------------------------------------|
G|-7-7-7-7-7-7-7-7-3-3-3-3-0-------------------------------------|
C|-7-7-7-7-7-7-7-7-3-3-3-3-0-------------------------------------|




| /  slideup
| \  slidedown
| h  hammer-on
| p  pull-off
| ~  vibrato
| +  harmonic
| x  Mutenote
Tap to rate this tab
# A B C D E F G H I J K L M N O P Q R S T U V W X Y Z