Song name
# A B C D E F G H I J K L M N O P Q R S T U V W X Y Z

Tonight Alive - Starlight tab

Starlight Lead Guitar Tab
Drop C# - C# G# C# F# A# D#

This is one of my favorite TA songs, and is so easy to play once you get the hang of it.
I'll post the corresponding Rhythm Guitar too.

Intro-
|---10--7-----9--5-----10---7--|---10--7----14--10--14--10--|
|----------7--------7----------|-7--------7-----------------|
|------------------------------|----------------------------|
|------------------------------|----------------------------|
|------------------------------|----------------------------|
|------------------------------|----------------------------|

|---10--7-----9--5-----10---7--|----10--7----12--9---12--9--|
|----------7--------7----------|--7-------7-----------------|
|------------------------------|----------------------------|
|------------------------------|----------------------------|
|------------------------------|----------------------------|
|------------------------------|----------------------------|

Verse-                                                            -----------
|------------------------------------|    |----------------------------|     |
|--------------10------------10------|    |-----------10-------10------|     |
|--11--------------11------------11--| x2 |--9------------9---------9--| 2x  | 3x
|------12--12-----------12-----------|    |-----7---7---------7--------|     | 
|------------------------------------|    |----------------------------|     |
|------------------------------------|    |----------------------------|     |
                                                                  -----------
Bridge- Just Rhythm
Chorus                                                                
|----------10--10--10---7--7-|-7--7---5--5--5---7--3--5--------|  
|-7--7--7--------------------|---------------------------------| 2x 
|----------------------------|---------------------------------|  
|----------------------------|---------------------------------|  
|----------------------------|---------------------------------|
|----------------------------|---------------------------------|  

|------------------------|----------------------|
|------------------------|----------------------|
|--7-7---7---14--11--11--|--9---9--9--11--7--9--| 2x
|--x-x---x---x---x---x---|--x---x--x--x---x--x--|
|--5-5---5---12--9---9\--|--7---7--7--9---5--7--|
|------------------------|----------------------|

|----------------------------|---------------------------------|  
|----------10--10--10---7--7-|-7--7---5--5--5---7--3--5--------|  
|-7--7--7--------------------|---------------------------------| 2x 
|----------------------------|---------------------------------|  
|----------------------------|---------------------------------|  
|----------------------------|---------------------------------| 

Repeat Intro 
Repeat Verse
Post Verse-                                         --------
|------------------------------------|-----------------|    |
|-----------10--10----------10---10--|-----------------|    |
|-11----11----------7----7-----------|-6----6----6--6--| x2 | 3x
|------------------------------------|-----------------|    |
|------------------------------------|-----------------|    |
|------------------------------------|-----------------|    |
                                                    --------
Bridge- Just Rhythm
Repeat Chorus
Interlude- Wait and listen. Lead comes in last
|--12--12--12---14--14--14---17--17--17--17--17--17--17~-|  
|--------------------------------------------------------|  
|--------------------------------------------------------| 
|--------------------------------------------------------|  
|--------------------------------------------------------|  
|--------------------------------------------------------| 

Bridge -2x Just Rhythm

Repeat Chorus - 2x
End on 
|---10--7-----9--5-----10---7--|---10--7----14--10--14--10--|
|----------7--------7----------|-7--------7-----------------|
|------------------------------|----------------------------|
|------------------------------|----------------------------|
|------------------------------|----------------------------|
|------------------------------|----------------------------|

|---10--7-----9--5-----10---7--|
|----------7--------7----------|
|------------------------------|
|------------------------------|
|------------------------------|
|------------------------------|
Tap to rate this tab
# A B C D E F G H I J K L M N O P Q R S T U V W X Y Z