Song name
# A B C D E F G H I J K L M N O P Q R S T U V W X Y Z

Tonight Alive - Starlight tab

Starlight Rhythm Guitar Tab
Drop C# - C# G# C# F# A# D#

This is one of my favorite TA songs, and is so easy to play once you get the hang of it.
I'll post the corresponding Lead Guitar too

Intro-
|----------------------------| 
|----------------------------| 
|-4-4------------------------|
|-4-4---4-4-5--5~----5-------| 4x 
|-2-2---4-4-5--5~----5---7x--| 
|-------4-4-5--5~----5-------|

Verse- Just Lead 

Chorus-                                          -------
|----------------------------|    |-----------------|   |
|----------------------------|    |-----------------|   |
|-4-4------------------------|    |-----------------|   |
|-4-4---4-4-5--5~----5-------| 2x |-0-------2-------|   | x2
|-2-2---4-4-5--5~----5---7x--|    |-0--16x--0--16x--|   |
|-------4-4-5--5~----5-------|    |-0---------------|   |
                                                 -------
Post Chorus
|----------------------------| 
|----------------------------| 
|-4-4------------------------|
|-4-4---4-4-5--5~----5-------| 4x 
|-2-2---4-4-5--5~----5---7x--| 
|-------4-4-5--5~----5-------|

Verse- This is probably the hardest part in the whole song. Just listen to get it right
|----------------|------------|----------------|------------| 
|----------------|------------|----------------|------------| 
|----------------|------------|----------------|------------| 
|-9-9--9---9---0-|--0-0---0-0-|-7-7--7---7---7-|-7-7---7-7--| 2x
|-9-9--9---9---0-|--0-0---0-0-|-7-7--7---7---7-|-7-7---7-7--| 
|-9-9--9---9---0-|--0-0---0-0-|-7-7--7---7---7-|-7-7---7-7--| 

|---------------------------------| 
|---------------------------------| 
|---------------------------------| 
|-9-9-9-9-9-9-9-0--0------7-------| 2x 
|-9-9-9-9-9-9-9-0--0--8x--7--16x--| 
|-9-9-9-9-9-9-9-0--0------7-------|

Repeat Chorus

Interlude- Wait
|----------------------------------| 
|----------------------------------| 
|----------------------------------| 
|-5-------7-------9--------0-------| x2
|-5--16x--7--16x--9--16x---0--16x--| 
|-5-------7-------9--------0-------| 

Bridge-
|----------------------------| 
|----------------------------| 
|-4-4------------------------|
|-4-4---4-4-5--5~----5-------| 3x 
|-2-2---4-4-5--5~----5---7x--| 
|-------4-4-5--5~----5-------|
Final Chorus-
|---------------------------|-----------------|  
|---------------------------|-----------------|  
|-4-4-----------------------|-----------------|
|-4-4---4-4-5--5~--5--5--5--|-0-------2-------| 
|-2-2---4-4-5--5~--5--5--5--|-0--16x--0--16x--|
|-------4-4-5--5~--5--5--5--|-0---------------|

|-----------------------------------|----------------------------| 
|-----------------------------------|----------------------------| 
|-4-4-------------------------------|-4-4------------------------|
|-4-4---4-4-5--5~---5-5-5-5---5---5-|-4-4---4-4-5--5~----5-------| 
|-2-2---4-4-5--5~---5-5-5-5---5---5-|-2-2---4-4-5--5~----5---7x--|
|-------4-4-5--5~---5-5-5-5---5---5-|-------4-4-5--5~----5-------|

|-----------------|
|-----------------|  
|-----------------|
|-0-------2-------|
|-0--16x--0--16x--|
|-0---------------|

Outro- 
|----------------------------|    |-----------------| 
|----------------------------|    |-----------------| 
|-4-4------------------------|    |-4-4-------------|
|-4-4---4-4-5--5~----5-------| 3x |-4-4---4-4-5--5~~|
|-2-2---4-4-5--5~----5---7x--|    |-2-2---4-4-5--5~~|
|-------4-4-5--5~----5-------|    |-------4-4-5--5~~|
Tap to rate this tab
# A B C D E F G H I J K L M N O P Q R S T U V W X Y Z