Song name
# A B C D E F G H I J K L M N O P Q R S T U V W X Y Z

Tony Cetinski - Opet Si Pobijedila chords

Highlighted       Show chord diagrams
Tony Cetinski - Opet si pobijedila

      Cm           G             D#            G
Danas jesmo, sutra nismo, sve te marke, svi ti novci
      Fm                       G# G
svo bogatstvo, sve je prolazno
      B
dodju mnogi, mnogi prodju, pa se poslije pitas gdje su
         Gm             Cm  prelaz: Fm G
sto li rade, kako im je sad

Ti bi htjela na brzinu, na brzinu, u visinu
da ti zivot odmah pruzi sve
ali vjeruj, zlato moje, ja sam iskren, ja te volim
znaj da tako stvari ne stoje

             Fm           Cm       
   I stog cu ja, da cuvam nas
          B   G              Cm
   da ponizim  , svoj dobar glas

              Fm
   Opet si pobijedila, ljubav me pravi slabicem
         Cm
   al si vrijedila, srce da zavaram picem
         G          Fm       G        A     B       Cm
   pa da postanem, hrabar i lazno ti muski opsujem sve
               Fm
   Ljubavi zar slijepa si, ma mogu se potuci lako
       Cm
   ali ne mogu, otic od tebe tek tako
          G
   jer mi ne da cud, da odem, da odes, da postanes bivsa, a ja
                        G#  prelaz: G# B Cm
   da postanem bivsi i lud

Samo leti, ptico mala, nisi kriva, ti jos ne znas
kako prava ljubav zaboli, 
prve sijede, sav moj zivot, sve mi kaze da se cuva
ono sto se vjecno zavoli


Razlaganje:

   Cm      G   D#      G   Fm        C   G#      G   
E|-----3-----|-----3-----|------8------|-----8-----|
H|---4-------|---4-------|----9--------|---9-------|
G|-5-----5-4-|-3-----3-4-|-10-----10-9-|-8-----8-7-|
D|-----------|-----------|-------------|-----------|

   B           B           Gm      Cm    Fm      G
E|-----1-----|-----1-----|-----3---3---|-------1-------3-|
H|---3-----3-|---3-----3-|---3-----4---|-----1-------3---|
G|-3-----3---|-3-----3---|-3-----3-5---|---1-------4-----|
D|-----------|-----------|-------------|-3-------5-------|

by BoleR


Tap to rate this tab
# A B C D E F G H I J K L M N O P Q R S T U V W X Y Z