Song name
# A B C D E F G H I J K L M N O P Q R S T U V W X Y Z

Tony Cetinski - Blago Onom Ko Te Ima tab

Help us improve GuitareTab! Take a short survey!
-------------------------------------------------------------------------------
			     BLAGO ONOM KO TE IMA - Toni Cetinski
-------------------------------------------------------------------------------
Tabbed by: Kristijan Zontar
Email: kristijan.zontar@siol.com

Tuning: standard

fast strumming(listen to the song for strumming pattern)
strum each chord several times

intro:

e|---5----1----3----1----3----5----3----1----3----1----1-------|
B|---6----1----5----1----5----6----3----1----5----1----1-------|
G|---7----3----5----2----5----7----3----3----5----2----3-hold--|
D|---7----3----5----3----5----7----5----3----5----3----3-------|
A|---5----1----3----3----3----5----5----1----3----3----1-------|
E|---5--------------1---------5----3--------------1------------|


verse 1:

   
e|---1----1----1----5----1----3----3----1---|
B|---1----1----1----6----1----3----5----1---|
G|---2----3----2----7----3----3----5----3---|
D|---3----3----3----7----3----5----5----3---|
A|---3----1----3----5----1----5----3----1---|
E|---1---------1----5---------3-------------|

e|---1----1----1----5----1----3----3---|
B|---1----1----1----6----1----3----5---|
G|---2----3----2----7----3----3----5---|
D|---3----3----3----7----3----5----5---|
A|---3----1----3----5----1----5----3---|
E|---1---------1----5---------3--------|


chorus 1:


e|---5----1----3----1----3----5----3----1----3----1----3---|
B|---6----1----5----1----5----6----3----1----5----1----5---|
G|---7----3----5----2----5----7----3----3----5----2----5---|
D|---7----3----5----3----5----7----5----3----5----3----5---|
A|---5----1----3----3----3----5----5----1----3----3----3---|
E|---5--------------1---------5----3--------------1--------|

e|---5----1----3----1----3----5----3----1----3----1----1-------|
B|---6----1----5----1----5----6----3----1----5----1----1-------|
G|---7----3----5----2----5----7----3----3----5----2----3-hold--|
D|---7----3----5----3----5----7----5----3----5----3----3-------|
A|---5----1----3----3----3----5----5----1----3----3----1-------|
E|---5--------------1---------5----3--------------1------------|


verse 2:

e|---1----1----1----5----1----3----3---|
B|---1----1----1----6----1----3----5---|
G|---2----3----2----7----3----3----5---|
D|---3----3----3----7----3----5----5---|
A|---3----1----3----5----1----5----3---|
E|---1---------1----5---------3--------|


chorus 2:


e|---5----1----3----1----3----5----3----1----3----1---|
B|---6----1----5----1----5----6----3----1----5----1---|
G|---7----3----5----2----5----7----3----3----5----2---|
D|---7----3----5----3----5----7----5----3----5----3---|
A|---5----1----3----3----3----5----5----1----3----3---|
E|---5--------------1---------5----3--------------1---|

e|---5----1----3----1----3----5----3----1----3----1----1-------|
B|---6----1----5----1----5----6----3----1----5----1----1-------|
G|---7----3----5----2----5----7----3----3----5----2----3-hold--|
D|---7----3----5----3----5----7----5----3----5----3----3-------|
A|---5----1----3----3----3----5----5----1----3----3----1-------|
E|---5--------------1---------5----3--------------1------------|


solo: (backing for the trumphet)


e|---5----5----6----1----3----1----3----5---|
B|---5----6----6----1----3----1----5----7---|
G|---5----7----6----2----3----3----5----7---|
D|---7----7----8----3----5----3----5----7---|
A|---7----5----8----3----5----1----3----5---|
E|---5----5----6----1----3------------------|


chorus 3: (raised up one tone)


e|---7----3----5----3----5----7----5----3----5----3----5---|
B|---8----3----7----3----7----8----5----3----7----3----7---|
G|---9----5----7----4----7----9----5----5----7----4----7---|
D|---9----5----7----5----7----9----7----5----7----5----7---|
A|---7----3----5----5----5----7----7----3----5----5----5---|
E|---7--------------3---------7----5--------------3--------|

e|---7----3----5----3----5----7----5----3----5----3----5----7----5----3----5----3---|
B|---8----3----7----3----7----8----5----3----7----3----7----8----5----3----7----3---|
G|---9----5----7----4----7----9----5----5----7----4----7----9----5----5----7----4---|
D|---9----5----7----5----7----9----7----5----7----5----7----9----7----5----7----5---|
A|---7----3----5----5----5----7----7----3----5----5----5----7----7----3----5----5---|
E|---7--------------3---------7----5--------------3---------7----5--------------3---|
                                                          |_________outro_________|

If you find any mistakes please let me know :)
Have fun!!!

===============================================================================
Related for Blago Onom Ko Te Ima tab