Song name
# A B C D E F G H I J K L M N O P Q R S T U V W X Y Z

Tony Iommi - Saviour Of The Real tab

Help us improve GuitareTab! Take a short survey!
Tony Iommi and Glenn Hughes - Saviour of the Real

-Tabbed by Brian Wolfe, screen name DarkN00b-

brian_wolfe2001@yahoo.com

Last updated: 03/30/08

p = Palm Mute

All of the other tabs I saw for this song were HORRIBLY wrong, so here's the correct version.

I haven't figured out which one to use yet, so you can use either two or three string
chords for this song,  although I'm going to write it for three strings.

Tuning: Half step down, drop C#.
D#|----
A#|----
F#|----
C#|----
G#|----
C#|----

Heavy distortion, but don't go so overboard on it that it sounds like static.  Listen to
recording and try to match that, obviously.  Iommi humbuckers are recommended.

_______________________________________


Intro (Same as Riff 1.):

Bridge Pickup

D#|--------------------------------|
A#|--------------------------------|
F#|--------------------------------|
C#|--0--0--7-8-0--0-5-7-3-5-2-3----|        Repeat
G#|--0--0--7-8-0--0-5-7-3-5-2-3----|
C#|--0--0--7-8-0--0-5-7-3-5-2-3----|


Verse:

Neck Pickup

D#|----------------------------------|
A#|----------------------------------|
F#|----------------------------------|    Repeat
C#|----------------------------------|
G#|-0----------0---------------------|
C#|-0--0-0-7-8-0--0-0-5-7-3-5-2-3----|
    p  p p p p p  p p p p p p p p

Chorus:

Bridge Pickup

D#|---------------------------------------------------------|
A#|---------------------------------------------------------|
F#|---------------------------------------------------------|    
C#|--10---10--10-10--10-10----5p3-0-7--0-0---0-10/12-10-7-10|
G#|--10---10--10-10--10-10----5p3-0-7--0-0---0-10/12-10-7-10|
C#|--10---10--10-10--10-10----5p3-0-7--0-0---0-10/12-10-7-10|
               p

D#|---------------------------------------------------------|
A#|---------------------------------------------------------|
F#|---------------------------------------------------------|    
C#|--10---10--10-10--10-10----5p3-0-7--0-0---0-10/12-12-12--|
G#|--10---10--10-10--10-10----5p3-0-7--0-0---0-10/12-12-12--|
C#|--10---10--10-10--10-10----5p3-0-7--0-0---0-10/12-12-12--|
               p

Bridge:

Guitar 1: Bridge Pickup

D#|--------------------------------------|
A#|--------------------------------------|
F#|--7--6---5--3-------------------------|   Repeat
C#|--------------------------------------|
G#|--------------------------------------|
C#|--------------------------------------|

Guitar 2: Neck Pickup

D#|----------------------------------|
A#|----------------------------------|
F#|----------------------------------|
C#|-0--0-0-0-0---0---0-0-0-0-0-0-0---| Repeat
G#|-0--0-0-0-0---0---0-0-0-0-0-0-0---|
C#|-0--0-0-0-0---0---0-0-0-0-0-0-0---|
    p  p p p p   p   p p p p p p p


More to be added shortly!
Related for Saviour Of The Real tab