Song name
# A B C D E F G H I J K L M N O P Q R S T U V W X Y Z

Tony Iommi - What Youre Living For tab

Intro Riff, drop C# tuning

d#|------------------------------------|-----------------------------------|
A#|-pm--|pm-|--pm----------------------|-pm--|pm-|--pm---------------------|
F#|------------------------------------|-----------------------------------|
C#|---14-----14---14/15-----15---15/17-|---14-----14---14/15----15---15/12-|
G#|---12-----12---12/13-----13---13/15-|---12-----12---12/13----13---13/10-|
C#|-0-0--0-0-0--0-0--------------------|-0-0--0-0-0--0-0-------------------|

d#|------------------------------------|---------------------------------|
A#|-pm--|pm-|--pm----------------------|-pm------------------------------|
F#|------------------------------------|---------------------------------|
C#|---14-----14---14/15-----15---15/17-|---------------------------------|
G#|---12-----12---12/13-----13---13/15-|---12p10-10---10--8---8---8\5----|
C#|-0-0--0-0-0--0-0--------------------|-0-12p10-10---10--8---8---8\5----|
Tap to rate this tab
# A B C D E F G H I J K L M N O P Q R S T U V W X Y Z