Song name
# A B C D E F G H I J K L M N O P Q R S T U V W X Y Z

Tony Iommi - Wasted Again tab

Wasted Again by Tony Iommi and Glenn Hughes
from Fused

Drop C#/Db Tuning


INTRO                  x2
eb----------------------|
Bb----------------------|
Gb----------------------|
Db--2--------2----------|
Ab--2-5-2-1--2-5-2------|
Db--2--------2-----4br--|

VERSE
eb-------------------------------------------------|
Bb-------------------------------------------------| strummed
Gb-------------------------------------------------|
Db--2-2-2-2--4-5-5-5-5--7-7-7-7--5-5-5-5--2-2-2-2--|
Ab--2-2-2-2--4-5-5-5-5--7-7-7-7--5-5-5-5--2-2-2-2--|
Db--2-2-2-2--4-5-5-5-5--7-7-7-7--5-5-5-5--2-2-2-2--|

PRE CHORUS 0.33        x2  0.44
eb------------------------|------------------------------------------------|
Bb------------------------|------------------------------------------------|
Gb------------------------|------------------------------------------------|
Db--7-7-7-7-7-7~-2--------|--7-7-7-7-7-7~-4-4-4-4-4-4-4-4--3-3-3-3-3-3-3-3-|
Ab--7-7-7-7-7-7~-2-5-2-1--|--7-7-7-7-7-7~-4-4-4-4-4-4-4-4--3-3-3-3-3-3-3-3-|
Db--7-7-7-7-7-7~-2--------|--7-7-7-7-7-7~-4-4-4-4-4-4-4-4--3-3-3-3-3-3-3-3-|

CHORUS 0.52                                 x4
eb-------------------------------------------|
Bb-------------------------------------------|
Gb-------------------------------------------|
Db--2-2-2-2--4-4-4-4--5-5-5-5--7-7-7--5-4-2--|
Ab--2-2-2-2--4-4-4-4--5-5-5-5--7-7-7--5-4-2--|
Db--2-2-2-2--4-4-4-4--5-5-5-5--7-7-7--5-4-2--|

2.28                                     x4
eb----------------------------------------|
Bb----------------------------------------|
Gb----------------------------------------|
Db--22-2-2--22-2----22-2-2--22-2----------|
Ab--22-2----22-2-5--22-2----22-2-5-2-1-0--|
Db--22-2----22-2----22-2----22-2----------|

Any corrections please comment
Thanks
Tap to rate this tab
 
# A B C D E F G H I J K L M N O P Q R S T U V W X Y Z