Song name
# A B C D E F G H I J K L M N O P Q R S T U V W X Y Z

Tony Iommi - Resolution Song tab

Resolution Song by Tony Iommi and Glenn Hughes
from Fused

Drop C#/Db Tuning

INTRO
eb------------------------------------------------------------------|
Bb------------------------------------------------------------------|
Gb------------------------------------------------------------------|
Db------------------------------------------------------------------|
Ab--0---5--7-8-7-3-3-7-3--5-5--7-8-7--5--7-8-7-3-3-7-3--5-5--7-8-7--|
Db--0---0-----------------0-0---------0-----------------0-0---------|

0.19
eb------------------------------------------------------------------------|
Bb------------------------------------------------------------------------|
Gb------------------------------------------------------------------------|
Db--3-0-0--3-0-0--3-5-3-0-0--3-0-0--3-5/6-3-0-0--3-0-0--3-5-3-0-0--3-0-0--|
Ab--3-0-0--3-0-0--3-5-3-0-0--3-0-0--3-5/6-3-0-0--3-0-0--3-5-3-0-0--3-0-0--|
Db--3-0-0--3-0-0--3-5-3-0-0--3-0-0--3-5/6-3-0-0--3-0-0--3-5-3-0-0--3-0-0--|

cont. from above
eb------------|
Bb------------|
Gb------------|
Db--3-5/6-0~--|
Ab--3-5/6-0~--|
Db--3-5/6-0~--|

VERSE  0.39                                                    x2    
eb--------------------------------------------------------------|
Bb--------------------------------------------------------------|
Gb--------------------------------------------------------------|
Db--------------------------------------------------------------|
Ab--5--7-8-7-3-3-7-3--5-5--7-8-7--5--7-8-7-3-3-7-3--5-5--7-8-7--|
Db--0-----------------0-0---------0-----------------0-0---------|

CHORUS 1.12                      x4
eb--------------------------------|
Bb--------------------------------|
Gb--------------------------------|
Db--7-7-7-7-10-7-5-3-5-3-5-3-0-3--|
Ab--7-7-7-7-10-7-5-3-5-3-5-3-0-3--|
Db--7-7-7-7-10-7-5-3-5-3-5-3-0-3--|

1.28
eb------------------------------------------------------------------------|
Bb------------------------------------------------------------------------|
Gb------------------------------------------------------------------------|
Db--3-0-0--3-0-0--3-5-3-0-0--3-0-0--3-5/6-3-0-0--3-0-0--3-5-3-0-0--3-0-0--|
Ab--3-0-0--3-0-0--3-5-3-0-0--3-0-0--3-5/6-3-0-0--3-0-0--3-5-3-0-0--3-0-0--|
Db--3-0-0--3-0-0--3-5-3-0-0--3-0-0--3-5/6-3-0-0--3-0-0--3-5-3-0-0--3-0-0--|

cont. from above
eb-----------------------------------------------------------------------|
Bb-----------------------------------------------------------------------|
Gb-----------------------------------------------------------------------|
Db--3-5/6-3-0-0--3-0-0--3-5-3-0-0--3-0-0--3-5/6-3-0-0--3-0-0--3-5-3-0-0--|
Ab--3-5/6-3-0-0--3-0-0--3-5-3-0-0--3-0-0--3-5/6-3-0-0--3-0-0--3-5-3-0-0--|
Db--3-5/6-3-0-0--3-0-0--3-5-3-0-0--3-0-0--3-5/6-3-0-0--3-0-0--3-5-3-0-0--|

cont. from above
eb-------------------|
Bb-------------------|
Gb-------------------|
Db--3-0-0--3-5/6-0~--|
Ab--3-0-0--3-5/6-0~--|
Db--3-0-0--3-5/6-0~--|

3.26                                x2
eb------------------------------------|
Bb------------------------------------|
Gb------------------------------------|
Db--5-7-7-7--5-7-7-7br--5-7--5-7-7-7--|
Ab--5-7-7-7--5-7-7-7br--5-7--5-7-7-7--|
Db--5-7-7-7--5-7-7-7br--5-7--5-7-7-7--|

UNDER SOLO 3.43
eb---------------------------------------------------------------------|
Bb---------------------------------------------------------------------|
Gb---------------------------------------------------------------------|
Db--0--3-2--3--5--3-2-0--3-2--3--8-8-8-8-8-7--3-2-0--3-2--3--5--5-7-7--|
Ab--0--3-2--3--5--3-2-0--3-2--3--8-8-8-8-8-7--3-2-0--3-2--3--5--5-7-7--|
Db--0--3-2--3--5--3-2-0--3-2--3--8-8-8-8-8-7--3-2-0--3-2--3--5--5-7-7--|


eb---------------------|
Bb---------------------|
Gb---------------------|
Db--5-7-7-7-7-7-5-3-2--|
Ab--5-7-7-7-7-7-5-3-2--|
Db--5-7-7-7-7-7-5-3-2--|

Any corrections please comment
Thanks
Tap to rate this tab
# A B C D E F G H I J K L M N O P Q R S T U V W X Y Z