Song name
# A B C D E F G H I J K L M N O P Q R S T U V W X Y Z

Tony Iommi - Time Is The Healer tab

Help us improve GuitareTab! Take a short survey!
Again 1996 Dep Sessions
Intro/Main Riff
d#|------------------|----------------|-when-ends-----|
A#|------------------|----------------|-into chorus---|
F#|------------------|----------------|---------------|
C#|------------------|----------------|---------------|
G#|-0--0-7-----8-6-1-|-0--0-7----8-6--|-0--0-7----8-1-|
C#|-0--0-7-----8-6-1-|-0--0-7----8-6--|-0--0-7----8-1-|

Chorus
d#|------------------|------------------|-----|
A#|------------------|------------------|-----|
F#|o-----------------|-----------------o|-----|
C#|o-----------------|-----------------o|-0---|
G#|-0--2-3-----2-3-2-|-0--2-3-----5-3-2-|-0---|
C#|-0--2-3-----2-3-2-|-0--2-3-----5-3-2-|-0---|

Interlude
d#|---------------|-------------------|-|1,2|-|3---------------------------|
A#|---------------|-------------------|-----|------------------------------|
F#|---------------|-------------------|-----|o----------------------------o|
C#|---------------|-------------------|-0---|o---9--------------9---------o|
G#|---------------|-1-1-1--3--5-6-6-8-|-0---|-2----9-8--5-3-2-----9-8tr9---|
C#|-3-3-3--5--6-6-|-------------------|-0---|------------------------------|

Next bit
d#|-----------------------------------|
A#|-----------------------------------|
F#|o-pm|-----------2-pm|-------------o|
C#|o-----0-------3-------0------3----o|
G#|----0---0-1-4-------0---0-1-4-232--|
C#|--0---------------0-----------232--|
Related for Time Is The Healer tab