Song name
# A B C D E F G H I J K L M N O P Q R S T U V W X Y Z

Tony Iommi - Gone tab

1996 Dep Sessions album

Intro/Main Riff
d#|----------------------|---------------------|
A#|----------------------|---------------------|
F#|------------pm----|---|------------pm|------|
C#|----------------------|---------------------|
G#|------3--2----0-2-3-5-|------3--2----0-5-5~-|
C#|-0--0-------5---------|-0--0-------5--------|

Chorus(palm mute the 0s)
d#|-----------------------------|----------------------------|
A#|-----------------------------|----------------------------|
F#|-----------------------------|----------------------------|
C#|-----------------------------|----------------------------|
G#|-0--0-0-7-6-5-0--0-0-0-7-6-5-|-0--0-0-7-6-5-0--0-0-0-7-6--|
C#|-0--0-0-7-6-5-0--0-0-0-7-6-5-|-0--0-0-7-6-5-0--0-0-0-7-6--|

Riff after 2nd Chorus
d#|-------------------------------|-end----------------------------------|
A#|-------------------------------|--------------------------------------|
F#|o-----------------------------o|---5---7---5--------------------------|
C#|o---9-7----5-4----------------o|-----7-------7-----8---8--------------|
G#|-7-----3------3-3-3-3-0--0-0-0-|-8---------------6---6----------------|
C#|----------------3-3-3-0--0-0-0-|--------------------------------------|

Then Chorus Riff then
Solo Rhythm              |1,3      |2         |4
d#|-------------------------------|----------|------|
A#|-------3--------3-----1------1-|-1----3p1-|------|
F#|---5------5---5---3------1-----|----1-----|------|
C#|-----5------5-------3------1---|----------|-6----|
G#|-3-----------------------------|----------|-6----|
C#|-------------------------------|----------|-6----|

End
d#|-----------------------------|
A#|-----------------------------|
F#|-----------------------------|
C#|-----------------------------|
G#|-0--0-0-7-6-5-0--0-0-0-7-6-5-|
C#|-0--0-0-7-6-5-0--0-0-0-7-6-5-|
Tap to rate this tab
# A B C D E F G H I J K L M N O P Q R S T U V W X Y Z