Song name
# A B C D E F G H I J K L M N O P Q R S T U V W X Y Z

Tony Iommi - Gone tab

Intro/Verse

eb|--------------------------------------------|
Bb|--------------------------------------------|
Gb|--------------------------------------------|  X8
Db|--------------------------------------------|
Ab|---------2/3-2--00--235-----2/3-2--00--55---|
Db|-12/--0---------00--------0--------00-------|
                   ..  ...            ..

Chorus

eb|--------------------------------------------|
Bb|--------------------------------------------|
Gb|--------------------------------------------|  X4
Db|--------------------------------------------|
Ab|-0-00--765--0-00--765~-0-00--765--0-00--76~-|
Db|-0-00--765--0-00--765~-0-00--765--0-00--76~-|
    . ..       . ..       . ..       . ..


Verse

eb|----------------------------------------|
Bb|----------------------------------------|
Gb|----------------------------------------|  X4
Db|----------------------------------------|
Ab|-----2/3-2--00--235-----2/3-2--00--55---|
Db|--0---------00--------0--------00-------|
               ..                 ..

Chorus

eb|--------------------------------------------|
Bb|--------------------------------------------|
Gb|--------------------------------------------|  X4
Db|--------------------------------------------|
Ab|-0-00--765--0-00--765~-0-00--765--0-00--76~-|
Db|-0-00--765--0-00--765~-0-00--765--0-00--76~-|
    . ..       . ..       . ..       . ..

Bridge

eb|--------------------------------------------|
Bb|--------------------------------------------|
Gb|--7~-----------5~---------------------------|  X4
Db|--7~-----------5~-----------7~--------------|
Ab|--5~-----------3~-----------7~--------------|
Db|----------------------------7~--------------|


Chorus

eb|--------------------------------------------|
Bb|--------------------------------------------|
Gb|--------------------------------------------|  X2
Db|--------------------------------------------|
Ab|-0-00--765--0-00--765~-0-00--765--0-00--76~-|
Db|-0-00--765--0-00--765~-0-00--765--0-00--76~-|
    . ..       . ..       . ..       . ..

Solo
(I just play around in the Db penatonic)


Verse

eb|----------------------------------------|
Bb|----------------------------------------|
Gb|----------------------------------------|  X4
Db|----------------------------------------|
Ab|-----2/3-2--00--235-----2/3-2--00--55---|
Db|--0---------00--------0--------00-------|
               ..                 ..


Chorus

eb|--------------------------------------------|
Bb|--------------------------------------------|
Gb|--------------------------------------------|  X10
Db|--------------------------------------------|
Ab|-0-00--765--0-00--765~-0-00--765--0-00--76~-|
Db|-0-00--765--0-00--765~-0-00--765--0-00--76~-|
    . ..       . ..       . ..       . ..

Outro

eb|------------|
Bb|------------|
Gb|------------| X1
Db|------------|
Ab|--0-00--765-|
Db|--0-00--765-|
     . ..
Tap to rate this tab
# A B C D E F G H I J K L M N O P Q R S T U V W X Y Z