Song name
# A B C D E F G H I J K L M N O P Q R S T U V W X Y Z

Tony Iommi - I Go Insane tab

Tab by Nicky Petty & Dane Kelly.

This is for Those of you who want a tab for new Tony Iommi Songs From His New Album 
i will have the rest of this next year after my guitar tutor has tabbed the rest check out 
other tab for the song The Spell also on Fused.

Thanx , Dane


E----------Ring-------------------------------------------14--13--11-----------------|
B--14^--14^------11--14-----------------------------------------14-------------------|
G-------------13^--------13^r--11------------11--------------------------------------|
D---------------------------------13--11--------11-----------------------------------|
A-----------------------------------------13-----------------------------------------|
E------------------------------------------------------------------------------------|

E----------------------------------------------------------------------------------|
B--11h12p11------------------------------------------------------------------------|
G-------------13--11h13p11-------11--rake------------------------------------------|
D--------------------------13p11---------------------------------------------------|
A--------------------------------13-------13--11/9-------9--11/13------------------|
E--------------------------------------------------9--11---------------------------|

E-------------------------------------------------------------------------------------|
B-------------------------------------------------------------------------------------|
G-------------------14--16^Ring-------------------------------------------------------|
D---------11--13/15-------------------------------------------------------------------|
A--11--13-----------------------------------------------------------------------------|
E-------------------------------------------------------------------------------------|
Tap to rate this tab
# A B C D E F G H I J K L M N O P Q R S T U V W X Y Z