Song name
# A B C D E F G H I J K L M N O P Q R S T U V W X Y Z

Tony Iommi - Dopamine tab

Dopamine
Artist: Tony Iommi
Album: Fused

Tuning: Stantard C#
Tab by: MASK



Intro:
|--------------------------------------------|
|--------------------------------------------|
|--------------------------------------------|
|--------------------------------------------|
|--------------------------------------------|
|-0h3h5-0h3h5-0--0h3h5-0h3h5~--0h3h5-0h3h5-0-|

|---------------------------------------------------------------|
|---------------------------------------------------------------|
|---------------------------------------------------------------|
|---------------------------------------------------------------|
|---------------------------------------------------------------|
|-0h3h5--0--0h3h5-0h3h5-0--0h3h5-03h5~--0h3h5-0h3h5-0--0h3h5-0--|


Pre-verse:

|------------------------------------------------------|
|------------------------------------------------------|
|------------------------------------------------------|
|------------------------------------------------------|
|-0h3h5-0h3h5-0--0h3h5-0h3h5~--0h3h5-0h3h5-0--0h3h5--0-|

|----------------------------------------------------------|
|----------------------------------------------------------|
|----------------------------------------------------------|
|----------------------------------------------------------|
|--------------------------------------------------5-------|
|-0h3h5-0h3h5-0--0h3h5-03h5~--0h3h5-0h3h5-0--0h3h5---5pp3~-|

Verse
|-------------------------------|
|--------8-8--------------------|
|-----99-9-9--------------------|
|-----99-9-9-(x4)---------------|
|-7-7-77-7-7------------5-------|
|-0-0-00-0-0------0h3h5---5h3~--|

Pre-Chorus
|--------------------------------------------|
|--------------------------------------------|
|--------------------------------------------|
|-7----(7)----9----(9)----7----(7)--------2--|
|-5----(5)----7----(7)----5----(5)----5-7-2--|
|-------------0----(0)----------------3-5-0--|

|---------------------------------------------------------------------|
|---------------------------------------------------------------------|
|---------------------------------------------------------------------|
|-7----(5)----9----(9)----7----(7)------------------------------------|
|-5----(3)----7----(7)----5----(5)----5-5-5-5-5-5-5-5-7-7-7-7-7-7-7-7-|
|-------------0----(0)----------------3-3-3-3-3-3-3-3-5-5-5-5-5-5-5-5-|


Chorus
|----------------------------|
|----------------------------|
|----------------------------|
|---------------2-2-5--5-5-5-|
|-2-2-5--5-5-5--0-0-3--3-3-3-|
|-0-0-3--3-3-3---------------|

bridge:
|-----------------------------|
|-----------------------------|
|-----------------------------|
|-----------------5-5-5-55-5--|
|-7-7-7-7-7-7-7-7-3-3-3-33-3--|
|-5-5-5-5-5-5-5-5-------------|
Tap to rate this tab
 
# A B C D E F G H I J K L M N O P Q R S T U V W X Y Z