Song name
# A B C D E F G H I J K L M N O P Q R S T U V W X Y Z

Tony Joe White - Clovis Green tab

Tony Joe White
Clovis Green

e-----------------0----------0h3---------3----------------------------|
h-----1/3-5------0-----3----3-----------0------3/5-7-7----------------|
G-----2/4-------0-----2----2-----2-------------4/6--------------------|
D--------------2-----0----0-----------2---------------------0-0-2-0h2-|
A-------------2----------------------2------------------0-2-----------|
E--0---------0----------------------0-------0-------------------------|

e-----------------------------------------------|
h-----------------------------------------------|
G--0h2-4----------------------0-----------------|
D---------------0-2-x-x-x-0h2---2--0----------x-|  Verse => Em ;C ;D5 ;Hm ;H4
A-----------0h2---------------------------0---x-|
E---------0-----------------------------------x-|
                                                   have fun!
Tap to rate this tab
 
# A B C D E F G H I J K L M N O P Q R S T U V W X Y Z