Song name
# A B C D E F G H I J K L M N O P Q R S T U V W X Y Z

Tony Laf - Im Good tab

Tabbed by: tom sidery
Email:
capo 1st fret
Tuning: standard

im too lazy to tab the whole song so i thought i'd tab litle bits. he plays the same
throughout so its not that hard to work out what notes he plays. i tried my best for the a
chord but theres some ghost notes in there that i think i missed. anyway.

                Am
e|----------------------------------------------3--------------|
B|------------0h1p0----------1p0-------------1--------1-----1--|
G|-------------------0--0------------------2------------2------|
D|-------2-------------0---------------0h3---------------------|
A|-----0-------------------------------------------------------|
E|-------------------------------------------------------------|

e|-----6-------------------------------------------------------------------------|
B|-------------4~----------------------------------------------------------------|
G|----------5--------------------------------------------------------------------|
D|-----6-------------------------------------------------------------------------|
A|-------------------------------------------------------------------------------|
E|-------------------------------------------------------------------------------|

e|------------------------------------------------3---------------6-----|
B|----------0h1p0---------0h1------1p0----------- 1--1---1/3---------4--|
G|-----------------0-------------------------2-----------2/4---6--------|
D|-------2--------------2------2-----------3----------------------------|
A|-----0----------------------------------------------------------------|
E|----------------------------------------------------------------------| maybe one day 
try and tab the rest. let me know what you think. if you wana find out how he plays 
youtube
Tap to rate this tab
 
# A B C D E F G H I J K L M N O P Q R S T U V W X Y Z