Song name
# A B C D E F G H I J K L M N O P Q R S T U V W X Y Z

Tony Q - Kangen tab

newbie :D
guys this tab from my friend .
enjoy and correct it!


intro:

|---------------------------0-----------------------------------------|
|------------------------------0--------------------------------------|
|----------0-----------2/4--------0----------------0------------------|
|----0--2-----0------------------------------0--2---------------------|
|--2--------------------------------------2-----------3--3-2-3-2/4----|
|---------------------------------------------------------------------|

chords:

         G              D           Em         C
|--------3--------------2--------------------------|
|-----------------------3----------------------1---|
|-----------------------2--------------------------|                         
|------------------------------------2---------2---|
|--------2---------------------------2---------3---|
|--------3-----------------------------------------|
Tap to rate this tab
# A B C D E F G H I J K L M N O P Q R S T U V W X Y Z