Song name
# A B C D E F G H I J K L M N O P Q R S T U V W X Y Z

Tony Rice - Where The Soul Never Dies tab

This is the guitar break Tony does after the first verse and chorus in the key of either 
or E. I did this by ear from the live recording on Youtube, it's a little sketchy and 
there are any corrections please make them.

e-----------------------0------------------0-------------------------|
B-----------------------1----------------1-1-------------------------|
G---------------0-------0------0---0-0h2---0----2-0-------0h2-0------|
D-----------0h2---2p1p0-2--0h2---3---------2--3-----3-0h2------------|
A-----0-0h3-------------3------------------3------------3------------|
E-3-3----------------------------------------------------------------|

part towards the end
e------------------0-----------------------------------------------|
B------------------1------------1----------------------------------|
G------------------0--------0h2------------------------------------|
D--2-0---2-0-----0-2----0h2----------------------------------------|
A------3-----3-2---3--3--------------------------------------------|
E------------------3-----------------------------------------------|
Tap to rate this tab
# A B C D E F G H I J K L M N O P Q R S T U V W X Y Z