Guitaretab - guitar tabs
Song name
# A B C D E F G H I J K L M N O P Q R S T U V W X Y Z

Too Rude - Too Rude-local Dub tab

------------------------------------------------------------------------
			     Local Dub - Too Rude
------------------------------------------------------------------------
Tabbed by: Casey  originally tabbed by Ryan from Too Rude)
Email: burnoutlocal@sbcglobal.net
100% correct
Have some fun with it. dont have the song buy it. 
Remember 
Respect the Artists!
Support their art and music!
Do not steal!


Tuning: standard 

Repeat 3xs                               2nd ending 
e|----------------------------------------|----------------------------|
B|----------------------------------------|----------------------------|
G|----------------------------------------|----------------------------|
D|----------------------------------------|----------------------------|
A|--5-/-7-7-7-7-/10-10-10-10--12-12-5-5-5-|7---------------------------|
E|--3-/-5-5-5-5-/-8-8---8-8--/10-10-3-3-3-|5---------------------------|

Reggae skanking 
Chords A             D               A                  D
e|---5--------5-----|---------------|---5--------5---|-----------------|
B|---5--------5-----|---7-------7---|---5--------5---|---7--------7----|
G|---6--------6-----|---7-------7---|---6--------6---|---7--------7----|
D|---7--------7-----|---7-------7---|---7--------7---|---7--------7----|
A|------------------|---5-------5---|----------------|---5--------5----|
E|------------------|---------------|----------------|-----------------|
[ Tab from: http://www.guitaretab.com/t/too-rude/83947.html ]
Chords A             D               A                  
e|---5--------5-----|---------------|---5--------5---|-----------------|
B|---5--------5-----|---7-------7---|---5--------5---|-----------------|
G|---6--------6-----|---7-------7---|---6--------6---|-----------------|
D|---7--------7-----|---7-------7---|---7--------7---|--5-----5-----5--|
A|------------------|---5-------5---|----------------|--3--5--3--5--3--|
E|------------------|---------------|----------------|-----3-----3-----|

Bass line and played also on 2nd guitar    
e|-------------------|-------------------------------------------------|
B|-------------------|-------------------------------------------------|
G|-------------------|-------------------------------------------------|
D|-------------------|-------------------------------------------------|
A|------3-5-5-5-5-3--|-------------------------------------------------|
E|-5-5--------------3|-------------------------------------------------|







Chorus   repeat 3xs 
e|--1--------1---------|--3-----------3---------|--5-------5-----------|
B|--1--------1---------|--3-----------3---------|--5-------5-----------|
G|--2--------2---------|--5-----------5---------|--6-------6-----------|
D|--3--------3---------|--6-----------6---------|--7-------7-----------|
A|---------------------|------------------------|----------------------|
E|---------------------|------------------------|----------------------|
                     Solo, 

e|--3--------3-------|--10b-10----10-8-10---10b-8------8---------------|
B|--3--------3-------|----------------------------10-----10--8--8h10---|
G|--4--------4-------|-------------------------------------------------|
D|--5--------5-------|-------------------------------------------------|
A|-------------------|-------------------------------------------------|
E|-------------------|-------------------------------------------------|



e|----------------5------------------------------------------------|
B|--------------5----5--5--8/10--10-8----8h10----------------------|
G|--9/7--5-7-7b------------------------9---------------------------|
D|-----------------------------------------------------------------|
A|-----------------------------------------------------------------|
E|-----------------------------------------------------------------|