Song name
# A B C D E F G H I J K L M N O P Q R S T U V W X Y Z

Too Short - It Dont Stop tab

Help us improve GuitareTab! Take a short survey!
--------------
It Don't Stop
--------------
From Too Short album "Shorty The Pimp"
Tab by Matt Clark, Matt.Clark@umit.maine.edu


Guitar - Intro
|-9-----9-10-9----9--9-----9-10-9-------------------------------------|
|---------------------------------------------------------------------|
|---------------------------------------------------------------------|
|---------------------------------------------------------------------|
|---------------------------------------------------------------------|
|---------------------------------------------------------------------|


Bass - Main line.  Synth bass i think w/ some kind of envelope filter
|---------------------------------------------------------------------|
|---------------------------------------------------------------------|
|-------------------------2-3-----------------------------------------|
|-5-----3--5-----3--5-5-5-----5---3-----------------------------------|

Guitar - Other part
|----9-12-13-------9-12-15-------9-12--15-13-12---13-12-10--9---------|
|-10------------10------------10--------------------------------------|
|---------------------------------------------------------------------|
|---------------------------------------------------------------------|
|---------------------------------------------------------------------|
|---------------------------------------------------------------------|
Related for It Dont Stop tab