Song name
# A B C D E F G H I J K L M N O P Q R S T U V W X Y Z

Too Short - Shake That Monkey tab

-------------------------------------------------------------------------
                     Shake that Monkey - Too Short
-------------------------------------------------------------------------
Tabbed by:Bryce
Email:genma_is_god_aaf@yahoo.com

Tuning:Standard
  
Same pattern, just octaved up for variety, pick one, or switch off, and repeat.
e|---------------------------------|---------0-1-0~---0-----------------|
B|---------------------------------|---0-1-3------------3-1-0-----------|
G|---------------------------------|-2------------------------2-0-2~----|
D|-------0-2-3-2~---2-0------------|------------------------------------|
A|-0-2-3----------------3-2-0---0~-|------------------------------------|
E|----------------------------3----|------------------------------------|
Tap to rate this tab
# A B C D E F G H I J K L M N O P Q R S T U V W X Y Z