Song name
# A B C D E F G H I J K L M N O P Q R S T U V W X Y Z

Too Sorry For Apologies - Step One tab

ok its in standard tuning
Eadgbe
if you have questions
its ethanXloves on aim
or meowoofsniff@yahoo.com
tabbed by Ethan S.


verse
e|---0--------0--------0--0--0-|
b|--0-0-0----0-0-0----0--0--0--|
g|-6---6----8---8----2--2--2---|
d|7--------9--------2----------|
a|-----------------------------|
E|-----------------------------|X6

chorus
e|----0-|
b|----2-|
g|----2-|
d|6-4-2-|
a|4-2-0-|
E|----0-|X2 figure out the strum pattern its really easy


e|-0--0------0-|
b|-0--2------2-|
g|-2--2------2-|
d|-2--2--6-4-2-|
a|-1--0--4-2-0-|
E|-0--0------0-|X2 again figure out the pattern


the end chorus is slightly different
dont worry its the same chords just listen to it
idk if this is right but id 90%
Tap to rate this tab
 
# A B C D E F G H I J K L M N O P Q R S T U V W X Y Z