Song name
# A B C D E F G H I J K L M N O P Q R S T U V W X Y Z

Tool - No Quarter tab

Tool
No quarter

*Crap man, i posted the "you lied song" and i din't get credit for it"*

Legend

nh - natural harmonic
 ph - pinch harmonic

pm - palm mute
 x - muted string

h - hammer on
 p - pull off

\\ - slide down
 // - slide up

b - bend
 ~~ - vibrato

<7> - natural harmonic
 x/// - pick scrape (directions same as slide)

tr - tremolo picking


--------------------------------------------------------------------------------


Note: There are two guitars in the intro, one is left channel and one is
      right channel. They don't overlap much until a bit before the opening
      heavy riff. So I have arranged two guitars as a single guitar part.

*volume off hit open A string, bring volume up*


*********************************************************************


(slightly dirty with flange and delay)

e--------------------------------------------------------------|
b--------------------------------------------------------------|
g-----------------------------------------------12-------------|
d----15p14-12-14-10--------------15p14-12-14-10----------------|
a-------------------10-12----------------------------15p12-12--|
d--0-----------------------10-12------------------12-------12--|

e----------------------------------------------------------------------|
b----------------------------------------------------------------------|
g----------------------------------------------------------------------|
d--15p14-12-14-10--------------15p14-12-14-10--------------12----------|
a-----------------10-12-----------------------12h15-10--10----10-------|
d------------------------10-12-----------------------------------0-----|

e----------------------------------------------------------|
b----------------------------------------------------------|
g----------------------------------------------------------|
d-------------12-12/14-14--15p14-12-14-10------------------|
a-----12--15------------------------------12h15-10h12------|
d------------------------------------------------------12--|

e----------------------------------------------------------|
b----------------------------------------------------------|
g----------------------------------------------------------|
d--10-10--10-10h12---------------10-----9-----12-----------|
a------------------10--10h12-12------10----10--------------|
d--------------------------------------------------0-------|

e----------------------------------------------------------|
b----------------------------------------------------------|
g----------------------------------------------------------|
d-------------12-12/14-14--15p14-12-14-10------------------|
a--12h15--15------------------------------12h15-10h12------|
d------------------------------------------------------12--|

e----------------------------------------------------------|
b----------------------------------------------------------|
g----------------------------------------------------------|
d----10-10--10-10h12--------------------12---12------------|
a--------------------10--10---12--/15--------10------------|
d--0----------------------------------------------0--------|

e-----------------------------------------------------------|
b-----------------------------------------------------------|
g------------------------9----9------9-----9-9-10-10-12-12--|
d----------------12-12---8------8------8--------------------|
a--12-12--15-15----------7--------7------7------------------|
d-----------------------------------------------------------|

e----------------------------------------------|
b----------------------------------------------|
g--14----14--------14-------14-14-14--17-12b---|
d--13-------13--------13-----------------------|
a--12----------12--------12--------------------|
d----------------------------------------------|

(hard distortion)

e-------------------------------------------------------------------------|
b-------------------------------------------------------------------------|
g-------------------------------------------------------------------------|
d--10h12-12-12-12--10h12-12-12-12--10h12-12--3h5-5-5-5p3-3-3p0-----3p0----| x4
a--10h12-12-12-12--10h12-12-12-12--10h12-12--3h5-5-5-5p3-3-3p0-3p0-----0--|
d--10h12-12-12-12--10h12-12-12-12--10h12-12--3h5-5-5-5p3-3-3p0------------|


******** ^^^ repeat the section ONCE ^^^ ****************************


(slightly dirty with flange)

e------------------------------------------------------------------|
b------------------------------------------------------------------|
g------------------------------------------------------------------|
d--12/14-14-14~--14-14-14~--xx-5/7-7-7-7--7/10-10-10--10-10-10-10--| x8
a--10/12-12-12~--12-12-12~--xx-3/5-5-5-5--5/8--8--8---8--8--8--8---|
d--10/12-12-12~--12-12-12~--xx-3/5-5-5-5--5/8--8--8---8--8--8--8---|

(drums and bass enter)

(electric)
e------------------------------------------------------------------|
b------------------------------------------------------------------|
g------------------------------------------------------------------|
d--12/14-14-14~--14-14-14~--xx-5/7-7-7-7--7/10-10-10--10-10-10-10--|
a--10/12-12-12~--12-12-12~--xx-3/5-5-5-5--5/8--8--8---8--8--8--8---|
d--10/12-12-12~--12-12-12~--xx-3/5-5-5-5--5/8--8--8---8--8--8--8---|
|
|(acoustic)                                                         (x4)
e------------------------------------------------------------------|
b------------------------------------------------------------------|
g------------------------------------------------------------------|
d---------------------------------------10--10--10h12--15----------|
a-1010-10h12-12-12-12-13-12-12---12-12---------------------15------|
d--------------------------------------------------------------15--|

SOLO -- (the other guitar part continues underneath, 4 times)

(acoustic)
e------------------------------------------------------------------|
b------------------------------------------------------------------|
g------------------------------------------------------------------|
d---------------------------------------10--10--10h12--15----------|
a-1010-10h12-12-12-12-13-12-12---12-12---------------------15------|
d--------------------------------------------------------------15--|

(acoustic)
e------------------------------------------------------------------|
b------------------------------------------------------------------|
g------------------------------------------------------------------|
d------------------------------------10--10-10h12--8-10--7-8--5-7--|
a--10h12-12-12-12-13-12-12--10h12-12-------------------------------|
d------------------------------------------------------------------|

(electric)
e------------------------------------------------------|
b------------------------------------------------------|
g------------------------------------------------------|
d------------------------------------------------------|
a--8-7--8-7--8-7--8-7--5-8-7--5-8-7--5-8-7--3-5-3-5----|
d------------------------------------------------------|

(electric, with reverse tape effect)
e-----------------------------------------------------------|
b-----------------------------------------------------------|
g-----------------------------------------------------------|
d------5--------10--------10--------10--------10--------10--|
a--5h7----10h12-----10h12-----10h12-----10h12-----10h12-----|
d-----------------------------------------------------------|

(electric)
e---------------------------------------------------|
b---------------------------------------------------|
g---------------------------------------------------|
d--10-10h12-12-12-12p10-10-10\8-8-8\7--7---0--------|
a------------------------------------------0--------|
d------------------------------------------0--------|

(vocals come in)

e------------------------------------------------------------------|
b------------------------------------------------------------------|
g------------------------------------------------------------------|
d--12/14-14-14~--14-14-14~--xx-5/7-7-7-7--7/10-10-10--10-10-10-10--| x4
a--10/12-12-12~--12-12-12~--xx-3/5-5-5-5--5/8--8--8---8--8--8--8---|
d--10/12-12-12~--12-12-12~--xx-3/5-5-5-5--5/8--8--8---8--8--8--8---|

(heavy distortion)

e------------------------------------------------------------------|
b------------------------------------------------------------------|
g------------------------------------------------------------------|
d--12/14-14-14~--14-14-14~--xx-5/7-7-7-7--7/10-10-10--10-10-10-10--| x2
a--10/12-12-12~--12-12-12~--xx-3/5-5-5-5--5/8--8--8---8--8--8--8---|
d--10/12-12-12~--12-12-12~--xx-3/5-5-5-5--5/8--8--8---8--8--8--8---|

                                   x4                                    x4
e-------------------------------------|-------------------------------------|
b-------------------------------------|--15-15-18\17-15-13--10-13/15-15/18--|
g-------------------------------------|--14-14-17\16-14-12--9--12/14-14/17--|
d--0--0--15\14-12-10--7--10/12-12/15--|--0--0--15\14-12-10--7--10/12-12/15--|
a--0--0--15\14-12-10--7--10/12-12/15--|--0--0--15\14-12-10--7--10/12-12/15--|
d--0--0--15\14-12-10--7--10/12-12/15--|--0--0--15\14-12-10--7--10/12-12/15--|

                          x2                                   x4
e--------|-------------------|------------------------------------|
b--------|-------------------|------------------------------------|
g--------|-------------------|------------------------------------|
d--0-----|-------------------|------------------------------------|
a--0-----|-------------------|------------------------------------|
d--0-----|--0-0-0-0-0-0-0-0--|--0-0-0-0-0-0-0-0--0-0-0-0-<2>-<2>--|
           pm - - - - - - -|   pm - - - - - - - - - - - - - - - |

e-----------------------------------|
b-----------------------------------|
g-----------------------------------|
d-----------------------------------|
a-----------------------------------|
d--0-0-0-0-0-0-0-0--0-0-0-0--xx-xx--|
  pm - - - - - - - - - - - |

e----------------------------------------------------------------------------|
b--3-3--3-3-3--6--/-8--/-10--b---3-3--6-6-6--6-/-8-\-6-\-3-3--b--------------|
g--2-2--2-2-2--5--/-7--/-9---b---2-2--5-5-5--5-/-7-\-5-\-2-2--b--*feedback*--|
d--0-0---------------------------0-0-----------------------------------------|
a----------------------------------------------------------------------------|
d----------------------------------------------------------------------------|

e-----------------------------------------------------------------------|
b--3-3--3-3-3--6--/-8--/-10--6---3-3--6-6-6--6-/-8-\-6-\-3-3---6b--3b---|
g--2-2--2-2-2--5--/-7--/-9---5---2-2--5-5-5--5-/-7-\-5-\-2-2---5b--2b---|
d--0-0---------------------------0-0------------------------------------|
a-----------------------------------------------------------------------|
d-----------------------------------------------------------------------|

e------------------------------------------------------------------------|
b--3-3--3-3-3--6--/-8--/-10----------------------------------------------|
g--2-2--2-2-2--5--/-7--/-9---9--9--9-9-9--9-9--7/9-9-9--9-9-9/10--10/12--|
d--0-0-----------------------8--8--8-8-8--8-8----------------------------|
a----------------------------7--7--7-7-7--7-7--5/7-7-7--7-7-7/8---8-/10--|
d------------------------------------------------------------------------|

e----------------------------------------------------------|
b----------------------------------------------------------|
g--14--14--14-14-14--14-14--12/14-14-14-14--14/-17-12--14--|
d--13--13--13-13-13--13-13---------------------------------|
a--12--12--12-12-12--12-12--10/12-12-12-12--12/-15-10--12--|
d----------------------------------------------------------|

e-------------------------------------------------------------------------|
b-------------------------------------------------------------------------|
g-------------------------------------------------------------------------|
d--10h12-12-12-12--10h12-12-12-12--10h12-12--3h5-5-5-5p3-3-3p0-----3p0----| x2
a--10h12-12-12-12--10h12-12-12-12--10h12-12--3h5-5-5-5p3-3-3p0-3p0-----0--|
d--10h12-12-12-12--10h12-12-12-12--10h12-12--3h5-5-5-5p3-3-3p0------------|

e-----------------------------------------------------------|
b--------------------------------------------6/8-8-8-8\6-6--|
g--------------------------------------------5/7-7-7-7\5-5--|
d--10h12----12-12--10h12----12-12--10h12-12--3/5-5-5-5\3-3--|
a--10h12----12-12--10h12----12-12--10h12-12--3/5-5-5-5\3-3--|
d--10h12----12-12--10h12----12-12--10h12-12--3/5-5-5-5\3-3--|

                    x3
e----------------------|--------------------|
b----------------------|--------------------|
g----------------------|--------------------|
d----------3p0-0-5-----|--0----------0-3-0--|
a------3p0-----0-5-----|--0------0-3--------|
d--3p0---------0-5-----|--0--0-3------------|

e------------------------------------------|
b------------------------------------------|
g------------------------------------------|
d--------------15p12---------------15p12---| x4
a--------15p12---------------15p12---------|
d--15p12-------------x-15p12---------------|

e------------------------------|
b------------------------------|
g------------------------------|
d----------3p0-----------3p0---| x4
a------3p0-----------3p0-------|
d--3p0---------x-3p0-----------|

e------------------------------------|
b------------------------------------|
g------------------------------------|
d------------10p7-------------10p7---| x2
a-------10p7-------------10p7--------|
d--10p7-----------x-10p7-------------|

e--------------------------------------------------------------------------------|
b--------------------------------------------------------------------------------|
g--------------------------------------------------------------------------------|
d--------------18p15---------------18p15--------------18p15---------------18b----|
a--------18p15---------------18p15--------------18p15---------------18p15--------|
d--18p15-------------x-18p15--------------18p15-------------x-18p15--------------|

                            x3
e------------------------------|------------------------------|
b------------------------------|------------------------------|
g------------------------------|------------------------------|
d----------3p0-----------3p0---|----------3p0-----------3-0---|
a------3p0-----------3p0-------|------3p0-----------3p0---0---|
d--3p0---------x-3p0-----------|--3p0---------x-3p0-------0---|

*hold and feedback with flange*
Tap to rate this tab
# A B C D E F G H I J K L M N O P Q R S T U V W X Y Z