Song name
# A B C D E F G H I J K L M N O P Q R S T U V W X Y Z

Tool - Intermission tab

Help us improve GuitareTab! Take a short survey!
Intermission/Jimmy by Tool of the album Aenima
Drop D tuning
Text version of the Guitar pro tab already available. 
ENJOY.



Piano/synthesizer arranged for guitar
      E   E.  S  E   E.  S  E  E     S S E  E.  S  E  E.  S E     E.  S E.  S  
E||--10--------------------10-----|---------------10-----------|--------8-----|
B||-------------------------------|---------8---L--------------|--------------|
G||-----------------10---L-----7--|--L---7------------7-----7--|--8---L-------|
D||------12-----12----------------|----------------------------|--------------|
A||-------------------------------|----------------------------|--------------|
D||-------------------------------|----------------------------|--------------|


   E  E.  S E  E.  S  E  E     S S E  E.  S  E  E.  S E     E.  S  E.  S  
--10-----------------10-----|---------------10-----------|---------8-----|
---------------6---L--------|---------8---L--------------|---------------|
------7-----7------------7--|--L---7------------7-----7--|--8---L--------|
----------------------------|----------------------------|--------10-----|
----------------------------|----------------------------|---------------|
----------------------------|----------------------------|---------------|


   E  E.  S E  E.  S  E  E     S S E  E.  S  E  E.  S E     E.  S  E.  S  
--10-----------------10-----|---------------10-----------|---------8-----|
---------------6---L--------|---------8---L--------------|---------------|
------7-----7------------7--|--L---7------------7-----7--|--8------------|
----------------------------|----------------------------|--------10-----|
----------------------------|----------------------------|---------------|
----------------------------|----------------------------|---------------|


      E   E.  S  E   E.  S     E   E     H        H         
--16g17--15---L-13--15---L-15g17--15--|--L--------L--------|
--------------------------------------|--------------------|
--------------------------------------|--------------------|
--------------------------------------|--------------------|
--------------------------------------|--------------------|
--------------------------------------|--------------------|


      E   E.  S  E   E.  S  E   E      S. S  E.   S  S E  T E.   T. T. S. 
--16g17--15---L-13--15---L-17--18--|---L--L-17----L-15----L-L----L-13-15-|
-----------------------------------|-------------------------------------|
-----------------------------------|-------------------------------------|
-----------------------------------|-------------------------------------|
-----------------------------------|-------------------------------------|
-----------------------------------|-------------------------------------|


   E   E.  S  E   E.  S     E   E     H        H         
--17--15---L-13--15-----16g17--15--|--L--------L--------|
-----------------------------------|--------------------|
-----------------------------------|--------------------|
-----------------------------------|--------------------|
-----------------------------------|--------------------|
-----------------------------------|--------------------|


      E   E.  S  E   E.  S  E   E      S. S  E.   S  S E   T  E.   T. T. S. 
--16g17--15---L-13--15---L-17--18--|---L--L-20----L-18-L---L-17----L--L--L-|
-----------------------------------|---------------------------------------|
-----------------------------------|---------------------------------------|
-----------------------------------|---------------------------------------|
-----------------------------------|---------------------------------------|
-----------------------------------|---------------------------------------|


   E   E.  S  E   E.  S  E   E     S S  E   E.  S  E   E.  S  E   
--------------------------------|-----------------10-------------|
------------------------15------|--------------------------------|
--19----------------------------|----------12--------------------|
-----------------15---------12--|--L---12-------------12-----12--|
------17-----17-----------------|--------------------------------|
--------------------------------|--------------------------------|


   E.  S  E.  S     E   E.  S  E   E.  S  E  E     S S E  E.  S  E  E.  S E   
----------------|------------------------10-----|---------------10-----------|
---------13-----|--15---------------------------|---------8------------------|
----------------|-----------------10---------7--|--L---7------------7-----7--|
--13---L--------|------12-----12----------------|----------------------------|
---------15-----|-------------------------------|----------------------------|
----------------|-------------------------------|----------------------------|


  E.  S  E.  S        E   E.  S  E   E.  S     E   E     H        H         
---------8-----|--16g17--15---L-13--15---L-15g17--15--|--L--------L--------|
---------------|--------------------------------------|--------------------|
--8------------|--------------------------------------|--------------------|
--------10-----|--------------------------------------|--------------------|
---------------|--------------------------------------|--------------------|
---------------|--------------------------------------|--------------------|


      E   E.  S  E   E.  S  E   E      S. S  E.   S  S E  T E.   T. T. S. 
--16g17--15---L-13--15---L-17--18--|---L--L-17----L-15----L-L----L-13-15-|
-----------------------------------|-------------------------------------|
-----------------------------------|-------------------------------------|
-----------------------------------|-------------------------------------|
-----------------------------------|-------------------------------------|
-----------------------------------|-------------------------------------|


   E   E.  S  E   E.  S     E   E     H        H         
--17--15---L-13--15-----16g17--15--|--L--------L--------|
-----------------------------------|--------------------|
-----------------------------------|--------------------|
-----------------------------------|--------------------|
-----------------------------------|--------------------|
-----------------------------------|--------------------|


      E   E.  S  E   E.  S  E   E      S. S  E.   S  S E   T  E.   T. T. S. 
--16g17--15---L-13--15---L-17--18--|---L--L-20----L-18-L---L-17----L--L--L-|
-----------------------------------|---------------------------------------|
-----------------------------------|---------------------------------------|
-----------------------------------|---------------------------------------|
-----------------------------------|---------------------------------------|
-----------------------------------|---------------------------------------|


   Q    S S.  S S T  S E.  S E     S S S     S  E  S  S  S  E   S  S  S  S S  
--10----L----10------L-----8-L--|--L-------1g3-20-----3-18--L--17--3--L--5---|
--10----L----10------L-----8-L--|--L-----18g20-13----20-11--L--10-20--L-22---|
--10----L----10------L-----8-L--|--L-----------------------------------------|
--------------------------------|--------------------------------------------|
--------------------------------|--------------------------------------------|
--------------------------------|--------------------------------------------|


   Q    S S.  S S T  S E.  S E     S S S S  E  S S  S E   S S S S S  
--10----L----10------L-----8-L--|--L-----3-------3----------3-L-5---|
--10----L----10------L-----8-L--|--L-------13------11-L--10---------|
--10----L----10------L-----8-L--|--L-----0--5----0--3-L---2-0-L-2---|
--------------------------------|-----------------------------------|
--------------------------------|-----------------------------------|
--------------------------------|-----------------------------------|


   Q    S S.  S S T  S E.  S E     S S S     S  E  S  S  S  E   S  S  S  S S  
--10----L----10------L-----8-L--|--L-------1g3-20-----3-18--L--17--3--L--5---|
--10----L----10------L-----8-L--|--L-----18g20-13----20-11--L--10-20--L-22---|
--10----L----10------L-----8-L--|--L-----------------------------------------|
--------------------------------|--------------------------------------------|
--------------------------------|--------------------------------------------|
--------------------------------|--------------------------------------------|


   Q    S S.  S S T  S E.  S E     S S S  S  E  S  S  S  E   S S S S S  
--10----L----10------L-----8-L--|--L-----15--3----15--3--3---3---------|
--10----L----10------L-----8-L--|--L------8-13-----8-13-13--13---------|
--10----L----10------L-----8-L--|--L------0--5-----0--5--5---5-----L---|
--------------------------------|--------------------------------------|
--------------------------------|--------------------------------------|
--------------------------------|--------------------------------------|


   E   E.  S  E   E.  S  E  E     S S E  E.  S  E  E.  S E     E.  S E.  S  
--10--------------------10-----|---------------10-----------|--------8-----|
-------------------------------|---------8---L--------------|--------------|
-----------------10---L-----7--|--L---7------------7-----7--|--8---L-------|
------12-----12----------------|----------------------------|--------------|
-------------------------------|----------------------------|--------------|
-------------------------------|----------------------------|--------------|


   E  E.  S E  E.  S  E  E     S S E  E.  S  E  E.  S E     E.  S E.  S  
--10-----------------10-----|---------------10-----------|--------8-----|
---------------6---L--------|---------8---L--------------|--------------|
------7-----7------------7--|--L---7------------7-----7--|--8---L-------|
----------------------------|----------------------------|--------------|
----------------------------|----------------------------|--------------|
----------------------------|----------------------------|--------------|




Electric guitar (listen to song for timings)

   E  Q    E  Q         E  Q    E  Q         E  Q    E  Q      Q     
--------------------|--------------------|--------------------------|
--------------------|--------------------|--------------------------|
--------------------|--------------------|--------------------------|
--------------------|--------------------|--------------------------|
--------------------|--------------------|--------------------------|
--12--0----0--3/----|--12--0----0--5/----|--12--0----0--1/----10----|


   E  Q    E  Q         E  Q    E  Q         E  Q    E  Q      Q     
--------------------|--------------------|--------------------------|
--------------------|--------------------|--------------------------|
--------------------|--------------------|--------------------------|
--------------------|--------------------|--------------------------|
--------------------|--------------------|--------------------------|
--12--0----0--3/----|--12--0----0--5/----|--12--0----0--1/----10----|


   E  Q    E  Q         E  Q    E  Q         E  Q    E  Q      Q     
--------------------|--------------------|--------------------------|
--------------------|--------------------|--------------------------|
--------------------|--------------------|--------------------------|
--------------------|--------------------|--------------------------|
--------------------|--------------------|--------------------------|
--12--0----0--3/----|--12--0----0--5/----|--12--0----0--1/----10----|


   E  Q    E  Q         E  Q    E  Q         E  Q    E  Q      Q     
--------------------|--------------------|--------------------------|
--------------------|--------------------|--------------------------|
--------------------|--------------------|--------------------------|
--------------------|--------------------|--------------------------|
--------------------|--------------------|--------------------------|
--12--0----0--3/----|--12--0----0--5/----|--12--0----0--1/----10----|


   E  Q    E  Q         E  Q    E  Q         E  Q    E  Q      Q     
--------------------|--------------------|--------------------------|
--------------------|--------------------|--------------------------|
--------------------|--------------------|--------------------------|
--------------------|--------------------|--------------------------|
--------------------|--------------------|--------------------------|
--12--0----0--3/----|--12--0----0--5/----|--12--0----0--1/----10----|


   E  Q    E  Q         E  Q    E  Q         E  Q    E  Q      Q     
--------------------|--------------------|--------------------------|
--------------------|--------------------|--------------------------|
--------------------|--------------------|--------------------------|
--------------------|--------------------|--------------------------|
--------------------|--------------------|--------------------------|
--12--0----0--3/----|--12--0----0--5/----|--12--0----0--1/----10----|


  Q     H           H.              W                   H.            
-----------------|---------------|-------------------|---------------|
-----------------|---------------|-------------------|---------------|
-----------------|---------------|-------------------|---------------|
--0----12--------|--L------------|--L----------------|--L------------|
--0----12--------|--L------------|--L----------------|--L------------|
--0----12--------|--L------------|--L----------------|--L------------|


  H.              H         E   E  Q       H.              H.            
---------------|------------------------|---------------|---------------|
---------------|------------------------|---------------|---------------|
---------------|------------------------|---------------|---------------|
--L------------|--L------------10--L----|--L------------|--L------------|
--L------------|--L--------12-----------|---------------|---------------|
--L------------|--L---------------------|---------------|---------------|


  Q     Q     Q     Q        Q    H           H.            
-------------------------|-----------------|---------------|
-------------------------|-----------------|---------------|
-------------------------|-----------------|---------------|
--L----------12----------|-----------------|---------------|
-------12----------12----|---L----L--------|--L------------|
-------------------------|-----------------|---------------|


  Q     Q     Q     Q       H.              H.              W                 
-------------------------|---------------|---------------|-------------------|
-------------------------|---------------|---------------|-------------------|
-------------------------|---------------|---------------|-------------------|
-------------------------|---------------|---------------|-------------------|
--L----------------------|---------------|---------------|-------------------|
-------13----15----12----|--L------------|--L------------|--L----------------|


  H.              H.              Q     Q     Q     Q       H.            
---------------|---------------|-------------------------|---------------|
---------------|---------------|-------------------------|---------------|
---------------|---------------|-------------------------|---------------|
---------------|---------------|-------------------------|---------------|
---------------|---------------|-------------------------|---------------|
--L------------|--L------------|--L----13----15----12----|--L------------|


  H.              W                    H.              H.            
---------------|-------------------|----------------|---------------|
---------------|-------------------|----------------|---------------|
---------------|-------------------|----------------|---------------|
---------------|-------------------|----------------|---------------|
---------------|-------------------|----------------|---------------|
--L------------|--L----------------|--12------------|--L------------|


   H         Q      Q       E   E   E  E   Q         E   E   E  E   Q      
-------------------------|------------------------|-----------------------|
-------------------------|------------------------|-----------------------|
-------------------------|------------------------|-----------------------|
-------------------------|------------------------|-----------------------|
-------------------------|------------------------|-----------------------|
--12\--------1/----10----|--0--10--12--0--12b~----|--0--10--12--0--12~----|


  E   E   E  E   Q        E   E   E  E   Q        E   E   E  E   Q      
-----------------------|-----------------------|-----------------------|
-----------------------|-----------------------|-----------------------|
-----------------------|-----------------------|-----------------------|
-----------------------|-----------------------|-----------------------|
-----------------------|-----------------------|-----------------------|
--0--10--12--0--12~----|--0--10--12--0--12~----|--0--10--12--0--12~----|


  E   E   E  E   Q        E   E   E  E   Q        E   E   E  E   Q      
-----------------------|-----------------------|-----------------------|
-----------------------|-----------------------|-----------------------|
-----------------------|-----------------------|-----------------------|
-----------------------|-----------------------|-----------------------|
-----------------------|-----------------------|-----------------------|
--0--10--12--0--12~----|--0--10--12--0--12~----|--0--10--12--0--12~----|


   E  Q    E   E    E      E  Q    E   E    E      E  Q    E  Q      Q     
-----------------------|-----------------------|--------------------------|
-----------------------|-----------------------|--------------------------|
-----------------------|-----------------------|--------------------------|
-----------------------|-----------------------|--------------------------|
-----------------------|-----------------------|--------------------------|
--12--0----0--12S--10--|--12--0----0--10S--12--|--12--0----0--1S----10----|


   E  Q    E   E    E      E  Q    E   E    E      E  Q    E  Q      Q     
-----------------------|-----------------------|--------------------------|
-----------------------|-----------------------|--------------------------|
-----------------------|-----------------------|--------------------------|
-----------------------|-----------------------|--------------------------|
-----------------------|-----------------------|--------------------------|
--12--0----0--12S--10--|--12--0----0--10S--12--|--12--0----0--1S----10----|


   E  Q    E   E    E      E  Q    E   E    E      E  Q    E  Q      Q     
-----------------------|-----------------------|--------------------------|
-----------------------|-----------------------|--------------------------|
-----------------------|-----------------------|--------------------------|
-----------------------|-----------------------|--------------------------|
-----------------------|-----------------------|--------------------------|
--12--0----0--12S--10--|--12--0----0--10S--12--|--12--0----0--1S----10----|


   E  Q    E   E    E      E  Q    E   E    E      E  Q    E  Q      Q     
-----------------------|-----------------------|--------------------------|
-----------------------|-----------------------|--------------------------|
-----------------------|-----------------------|--------------------------|
-----------------------|-----------------------|--------------------------|
-----------------------|-----------------------|--------------------------|
--12--0----0--12S--10--|--12--0----0--10S--12--|--12--0----0--1S----10----|


   E   E   E   E   Q        E   E   E   E   Q        E   E   E   E   
------------------------|------------------------|------------------|
------------------------|------------------------|------------------|
------------------------|------------------------|------------------|
------------------------|------------------------|------------------|
------------------------|------------------------|------------------|
--12--15--12--10--12----|--12--15--12--10--12----|--12--15--12--10--|


   E   E   E   E   Q        E   E   E   E   Q        E   E   E   E   
------------------------|------------------------|------------------|
------------------------|------------------------|------------------|
------------------------|------------------------|------------------|
------------------------|------------------------|------------------|
------------------------|------------------------|------------------|
--12--15--12--10--12----|--12--15--12--10--12----|--12--15--12--10--|


   E   E   E   E   Q        E   E   E   E   Q        E   E   E   E   
------------------------|------------------------|------------------|
------------------------|------------------------|------------------|
------------------------|------------------------|------------------|
------------------------|------------------------|------------------|
------------------------|------------------------|------------------|
--12--15--12--10--12----|--12--15--12--10--12----|--12--15--12--10--|


   E   E   E   E   E   E      E   E   E   E   E   E      H         
--------------------------|---------------------------|-----------|
--------------------------|---------------------------|-----------|
--------------------------|---------------------------|-----------|
--------------------------|---------------------------|-----------|
--------------------------|---------------------------|-----------|
--12--15--12--10--12--12--|--12--12--10--10--12--12b--|--L--------|


   E  Q    E  Q         E  Q    E  Q         E  Q    E  Q      Q     
--------------------|--------------------|--------------------------|
--------------------|--------------------|--------------------------|
--------------------|--------------------|--------------------------|
--------------------|--------------------|--------------------------|
--------------------|--------------------|--------------------------|
--12--0----0--3/----|--12--0----0--5/----|--12--0----0--1/----10----|


   E  Q    E  Q         E  Q    E  Q         E  Q    E  Q      Q     
--------------------|--------------------|--------------------------|
--------------------|--------------------|--------------------------|
--------------------|--------------------|--------------------------|
--------------------|--------------------|--------------------------|
--------------------|--------------------|--------------------------|
--12--0----0--3/----|--12--0----0--5/----|--12--0----0--1/----10----|


   E  Q    E  Q         E  Q    E  Q         E  Q    E  Q      Q     
--------------------|--------------------|--------------------------|
--------------------|--------------------|--------------------------|
--------------------|--------------------|--------------------------|
--------------------|--------------------|--------------------------|
--------------------|--------------------|--------------------------|
--12--0----0--3/----|--12--0----0--5/----|--12--0----0--1/----10----|


  E   E   E  E   Q       E   E   E  E   Q       E   E   E  E  Q      Q     
----------------------|----------------------|----------------------------|
----------------------|----------------------|----------------------------|
----------------------|----------------------|----------------------------|
--0--10--12--0--12----|--0--10--12--0--12----|--0--10--12--0--1/----10----|
--0--10--12--0--12----|--0--10--12--0--12----|--0--10--12--0--1/----10----|
--0--10--12--0--12----|--0--10--12--0--12----|--0--10--12--0--1/----10----|


   T  T  T  T  T  T  T  T  T  T  T  T  T  T  T  T  T  T  T  T  T  T  T  T  
--------------------------------------------------------------------------|
--15-15-15-15-15-15-15-15-15-15-15-15-15-15-15-15-15-15-15-15-15-15-15-15-|
--14-14-14-14-14-14-14-14-14-14-14-14-14-14-14-14-14-14-14-14-14-14-14-14-|
--12-12-12-12-12-12-12-12-12-12-12-12-12-12-12-12-12-12-12-12-12-12-12-12-|
--12-12-12-12-12-12-12-12-12-12-12-12-12-12-12-12-12-12-12-12-12-12-12-12-|
--12-12-12-12-12-12-12-12-12-12-12-12-12-12-12-12-12-12-12-12-12-12-12-12-|


   T  T  T  T  T  T  T  T  T  T  T  T  T  T  T  T  T  T  T  T  T  T  T  T  
--------------------------------------------------------------------------|
--15-15-15-15-15-15-15-15-15-15-15-15-15-15-15-15-15-15-15-15-15-15-15-15-|
--14-14-14-14-14-14-14-14-14-14-14-14-14-14-14-14-14-14-14-14-14-14-14-14-|
--12-12-12-12-12-12-12-12-12-12-12-12-12-12-12-12-12-12-12-12-12-12-12-12-|
--12-12-12-12-12-12-12-12-12-12-12-12-12-12-12-12-12-12-12-12-12-12-12-12-|
--12-12-12-12-12-12-12-12-12-12-12-12-12-12-12-12-12-12-12-12-12-12-12-12-|


   T  T  T  T  T  T  T  T  T  T  T  T  T  T  T  T  T  T  T  T  T  T  T  T  
--------------------------------------------------------------------------|
--15-15-15-15-15-15-15-15-15-15-15-15-15-15-15-15-15-15-15-15-15-15-15-15-|
--14-14-14-14-14-14-14-14-14-14-14-14-14-14-14-14-14-14-14-14-14-14-14-14-|
--12-12-12-12-12-12-12-12-12-12-12-12-12-12-12-12-12-12-12-12-12-12-12-12-|
--12-12-12-12-12-12-12-12-12-12-12-12-12-12-12-12-12-12-12-12-12-12-12-12-|
--12-12-12-12-12-12-12-12-12-12-12-12-12-12-12-12-12-12-12-12-12-12-12-12-|


   T  T  T  T  T  T  T  T  T  T  T  T  T  T  T  T  T  T  T  T  T  T  T  T  
--------------------------------------------------------------------------|
--15-15-15-15-15-15-15-15-15-15-15-15-15-15-15-15-15-15-15-15-15-15-15-15-|
--14-14-14-14-14-14-14-14-14-14-14-14-14-14-14-14-14-14-14-14-14-14-14-14-|
--12-12-12-12-12-12-12-12-12-12-12-12-12-12-12-12-12-12-12-12-12-12-12-12-|
--12-12-12-12-12-12-12-12-12-12-12-12-12-12-12-12-12-12-12-12-12-12-12-12-|
--12-12-12-12-12-12-12-12-12-12-12-12-12-12-12-12-12-12-12-12-12-12-12-12-|


   T  T  T  T  T  T  T  T  T  T  T  T  T  T  T  T  T  T  T  T  T  T  T  T  T  T 
--------------------------------------------------------------------------------
--15-15-15-15-15-15-15-15-15-15-15-15-15-15-15-15-15-15-15-15-15-15-15-15-15-15-
--14-14-14-14-14-14-14-14-14-14-14-14-14-14-14-14-14-14-14-14-14-14-14-14-14-14-
--12-12-12-12-12-12-12-12-12-12-12-12-12-12-12-12-12-12-12-12-12-12-12-12-12-12-
--12-12-12-12-12-12-12-12-12-12-12-12-12-12-12-12-12-12-12-12-12-12-12-12-12-12-
--12-12-12-12-12-12-12-12-12-12-12-12-12-12-12-12-12-12-12-12-12-12-12-12-12-12-


   T  T  T  T  T  T  T  T  T  T  T  T  T  T  T  T  T  T  T  T  T  T  T  T  
--------------------------------------------------------------------------|
--15-15-15-15-15-15-15-15-15-15-15-15-15-15-15-15-15-15-15-15-15-15-15-15-|
--14-14-14-14-14-14-14-14-14-14-14-14-14-14-14-14-14-14-14-14-14-14-14-14-|
--12-12-12-12-12-12-12-12-12-12-12-12-12-12-12-12-12-12-12-12-12-12-12-12-|
--12-12-12-12-12-12-12-12-12-12-12-12-12-12-12-12-12-12-12-12-12-12-12-12-|
--12-12-12-12-12-12-12-12-12-12-12-12-12-12-12-12-12-12-12-12-12-12-12-12-|


   T  T  T  T  T  T  T  T  T  T  T  T  T  T  T  T  T  T  T  T  T  T  T  T  
--------------------------------------------------------------------------|
--15-15-15-15-15-15-15-15-15-15-15-15-15-15-15-15-15-15-15-15-15-15-15-15-|
--14-14-14-14-14-14-14-14-14-14-14-14-14-14-14-14-14-14-14-14-14-14-14-14-|
--12-12-12-12-12-12-12-12-12-12-12-12-12-12-12-12-12-12-12-12-12-12-12-12-|
--12-12-12-12-12-12-12-12-12-12-12-12-12-12-12-12-12-12-12-12-12-12-12-12-|
--12-12-12-12-12-12-12-12-12-12-12-12-12-12-12-12-12-12-12-12-12-12-12-12-|


   T  T  T  T  T  T  T  T  T  T  T  T  T  T  T  T  
--------------------------------------------------|
--15-15-15-15-15-15-15-15-15-15-15-15-15-15-15-15-|
--14-14-14-14-14-14-14-14-14-14-14-14-14-14-14-14-|
--12-12-12-12-12-12-12-12-12-12-12-12-12-12-12-12-|
--12-12-12-12-12-12-12-12-12-12-12-12-12-12-12-12-|
--12-12-12-12-12-12-12-12-12-12-12-12-12-12-12-12-|


   T  T  T  T  T  T  T  T  T  T  T  T  T  T  T  T  T  T  T  T  T  T  T  T  T  T 
--------------------------------------------------------------------------------
--15-15-15-15-15-15-15-15-15-15-15-15-15-15-15-15-15-15-15-15-15-15-15-15-15-15-
--14-14-14-14-14-14-14-14-14-14-14-14-14-14-14-14-14-14-14-14-14-14-14-14-14-14-
--12-12-12-12-12-12-12-12-12-12-12-12-12-12-12-12-12-12-12-12-12-12-12-12-12-12-
--12-12-12-12-12-12-12-12-12-12-12-12-12-12-12-12-12-12-12-12-12-12-12-12-12-12-
--12-12-12-12-12-12-12-12-12-12-12-12-12-12-12-12-12-12-12-12-12-12-12-12-12-12-


   T  T  T  T  T  T  T  T  T  T  T  T  T  T  T  T  S  S  S  S  E   E   
----------------------------------------------------------------------|
--15-15-15-15-15-15-15-15-15-15-15-15-15-15-15-15-15-15-15-15-15--15--|
--14-14-14-14-14-14-14-14-14-14-14-14-14-14-14-14-14-14-14-14-14--14--|
--12-12-12-12-12-12-12-12-12-12-12-12-12-12-12-12-12-12-12-12-12--12--|
--12-12-12-12-12-12-12-12-12-12-12-12-12-12-12-12-12-12-12-12-12--12--|
--12-12-12-12-12-12-12-12-12-12-12-12-12-12-12-12-12-12-12-12-12--12--|


   Q.     Q.      Q        Q    Q    E  E  E    E      Q.     Q.      Q     
-----------------------|---------------------------|-----------------------|
-----------------------|---------------------------|-----------------------|
-----------------------|---------------------------|-----------------------|
--12------7------10----|--10----0----8--7--5/--12--|--12------7------10----|
--12------7------10----|--10----0----8--7--5/--12--|--12------7------10----|
--12------7------10----|--10----0----8--7--5/--12--|--12------7------10----|


   Q    Q    E  E  E    E      Q.     Q.      Q        Q    Q    E  E  E    E   
---------------------------|-----------------------|---------------------------|
---------------------------|-----------------------|---------------------------|
---------------------------|-----------------------|---------------------------|
--10----0----8--7--5/--12--|--12------7------10----|--10----0----8--7--5/--12--|
--10----0----8--7--5/--12--|--12------7------10----|--10----0----8--7--5/--12--|
--10----0----8--7--5/--12--|--12------7------10----|--10----0----8--7--5/--12--|


   Q.     Q.      Q        W                 
------------------------|-------------------|
------------------------|-------------------|
------------------------|-------------------|
--12------7------10b----|--L----------------|
--12------7------10b----|--L----------------|
--12------7------10b----|--L----------------|


   S  S  S  S  S  S  S  S  S  S  S  S  S  S  S  S     S  S  S  S  S  S  S  S  
--------------------------------------------------|--------------------------|
--------------------------------------------------|--------------------------|
--------------------------------------------------|--------------------------|
--------------------------------------------------|--------------------------|
--------------------------------------------------|--------------------------|
--10-12-12-10-12-12-10-12-12-10-12-12-10-12-12-10-|--12-12-10-12-12-10-12-12-|


   S  S  S  S  S  S  S  S  S  S  S  S  S  S  S  S     S  S  S  S  S  S  S  S  
--------------------------------------------------|--------------------------|
--------------------------------------------------|--------------------------|
--------------------------------------------------|--------------------------|
--------------------------------------------------|--------------------------|
--------------------------------------------------|--------------------------|
--10-12-12-10-12-12-10-12-12-10-12-12-10-12-12-10-|--12-12-10-12-12-10-12-12-|


   S  S  S  S  S  S  S  S  S  S  S  S  S  S  S  S     S  S  S  S  S  S  S  S  
--------------------------------------------------|--------------------------|
--------------------------------------------------|--------------------------|
--------------------------------------------------|--------------------------|
--------------------------------------------------|--------------------------|
--------------------------------------------------|--------------------------|
--10-12-12-10-12-12-10-12-12-10-12-12-10-12-12-10-|--12-12-10-12-12-10-12-12-|


   S  S  S  S  S  S  S  S  S  S  S  S  S  S  S  S     S  S  S  S  S  S  S  S  
--------------------------------------------------|--------------------------|
--------------------------------------------------|--------------------------|
--------------------------------------------------|--------------------------|
--------------------------------------------------|--------------------------|
--------------------------------------------------|--------------------------|
--10-12-12-10-12-12-10-12-12-10-12-12-10-12-12-10-|--12-12-10-12-12-10-12-12-|


   E   E   E   E   Q        E   E   E   E   Q        E   E   E   E   Q     
------------------------|------------------------|------------------------|
------------------------|------------------------|------------------------|
------------------------|------------------------|------------------------|
------------------------|------------------------|------------------------|
------------------------|------------------------|------------------------|
--12--15--12--10--12----|--12--15--12--10--12----|--12--15--12--10--12----|


   E   E   E   E   Q        E   E   E   E   Q        E   E   E   E   Q     
------------------------|------------------------|------------------------|
------------------------|------------------------|------------------------|
------------------------|------------------------|------------------------|
------------------------|------------------------|------------------------|
------------------------|------------------------|------------------------|
--12--15--12--10--12----|--12--15--12--10--12----|--12--15--12--10--12----|


   E   E   E   E   Q        E   E   E   E   Q        E   E   E   E   Q      
------------------------|------------------------|-------------------------|
------------------------|------------------------|-------------------------|
------------------------|------------------------|-------------------------|
------------------------|------------------------|-------------------------|
------------------------|------------------------|-------------------------|
--12--15--12--10--12----|--12--15--12--10--12----|--12--10--12--10--12~----|


   E   E   E   E   Q         E   E   E   E   Q         E   E   E   E   Q      
-------------------------|-------------------------|-------------------------|
-------------------------|-------------------------|-------------------------|
-------------------------|-------------------------|-------------------------|
-------------------------|-------------------------|-------------------------|
-------------------------|-------------------------|-------------------------|
--12--10--12--10--12~----|--12--10--12--10--12~----|--12--10--12--10--12~----|


   E   E   E   E   Q         E   E   E   E   Q         E   E   E   E   Q      
-------------------------|-------------------------|-------------------------|
-------------------------|-------------------------|-------------------------|
-------------------------|-------------------------|-------------------------|
-------------------------|-------------------------|-------------------------|
-------------------------|-------------------------|-------------------------|
--12--10--12--10--12~----|--12--10--12--10--12~----|--12--10--12--10--12~----|


   E   E   E   E   Q         E   E   E   E   Q        E   E   E   E   Q     
-------------------------|------------------------|------------------------|
-------------------------|------------------------|------------------------|
-------------------------|------------------------|------------------------|
-------------------------|------------------------|------------------------|
-------------------------|------------------------|------------------------|
--12--10--12--10--12~----|--12--15--12--10--12----|--12--15--12--10--12----|


   E   E   E   E   Q        E   E   E   E   Q        E   E   E   E   Q     
------------------------|------------------------|------------------------|
------------------------|------------------------|------------------------|
------------------------|------------------------|------------------------|
------------------------|------------------------|------------------------|
------------------------|------------------------|------------------------|
--12--15--12--10--12----|--12--15--12--10--12----|--12--15--12--10--12----|


   E   E   E   E   Q        E   E   E   E   Q        E   E   E   E   Q     
------------------------|------------------------|------------------------|
------------------------|------------------------|------------------------|
------------------------|------------------------|------------------------|
------------------------|------------------------|------------------------|
------------------------|------------------------|------------------------|
--12--15--12--10--12----|--12--15--12--10--12----|--12--15--12--10--12----|


   E   E   E   E   Q         E   E   E   E   Q         E   E   E   E   Q      
-------------------------|-------------------------|-------------------------|
-------------------------|-------------------------|-------------------------|
-------------------------|-------------------------|-------------------------|
-------------------------|-------------------------|-------------------------|
-------------------------|-------------------------|-------------------------|
--12--10--12--10--12~----|--12--10--12--10--12~----|--12--10--12--10--12~----|


   E   E   E   E   Q         E   E   E   E   Q         E   E   E   E   Q      
-------------------------|-------------------------|-------------------------|
-------------------------|-------------------------|-------------------------|
-------------------------|-------------------------|-------------------------|
-------------------------|-------------------------|-------------------------|
-------------------------|-------------------------|-------------------------|
--12--10--12--10--12~----|--12--10--12--10--12~----|--12--10--12--10--12~----|


   E   E   E   E   Q         E   E   E   E   E  E      E  Q    E  Q      
-------------------------|-------------------------|--------------------|
-------------------------|-------------------------|--------------------|
-------------------------|-------------------------|--------------------|
-------------------------|-------------------------|--12--0----0--3/----|
-------------------------|-------------------------|--12--0----0--3/----|
--12--10--12--10--12~----|--12--10--12--10--12-----|--12--0----0--3/----|


   E  Q    E  Q         E  Q    E  Q      Q        E  Q    E  Q      
--------------------|--------------------------|--------------------|
--------------------|--------------------------|--------------------|
--------------------|--------------------------|--------------------|
--12--0----0--5/----|--12--0----0--1/----10----|--12--0----0--3/----|
--12--0----0--5/----|--12--0----0--1/----10----|--12--0----0--3/----|
--12--0----0--5/----|--12--0----0--1/----10----|--12--0----0--3/----|


   E  Q    E  Q         E  Q    E  Q      Q        E  Q    E  Q      
--------------------|--------------------------|--------------------|
--------------------|--------------------------|--------------------|
--------------------|--------------------------|--------------------|
--12--0----0--5/----|--12--0----0--1/----10----|--12--0----0--3/----|
--12--0----0--5/----|--12--0----0--1/----10----|--12--0----0--3/----|
--12--0----0--5/----|--12--0----0--1/----10----|--12--0----0--3/----|


   E  Q    E  Q         E  Q    E  Q      Q        E  Q    E  Q      
--------------------|--------------------------|--------------------|
--------------------|--------------------------|--------------------|
--------------------|--------------------------|--------------------|
--12--0----0--5/----|--12--0----0--1/----10----|--12--0----0--3/----|
--12--0----0--5/----|--12--0----0--1/----10----|--12--0----0--3/----|
--12--0----0--5/----|--12--0----0--1/----10----|--12--0----0--3/----|


   E  Q    E  Q         E  Q    E  Q      Q        H.            
--------------------|--------------------------|----------------|
--------------------|--------------------------|----------------|
--------------------|--------------------------|----------------|
--12--0----0--5/----|--12--0----0--1/----10----|--12------------|
--12--0----0--5/----|--12--0----0--1/----10----|--12------------|
--12--0----0--5/----|--12--0----0--1/----10----|--12------------|


  H.              H.              Q.     S  S Q        H.            
---------------|---------------|-------------------|----------------|
---------------|---------------|-------------------|----------------|
---------------|---------------|-------------------|----------------|
--6------------|--3------------|--L------3/-5-5----|--12------------|
--6------------|--3------------|--L------3/-5-5----|--12------------|
--6------------|--3------------|--L------3/-5-5----|--12------------|


  H.              H.              Q.     S  S Q        H.            
---------------|---------------|-------------------|----------------|
---------------|---------------|-------------------|----------------|
---------------|---------------|-------------------|----------------|
--6------------|--3------------|--L------3/-8-8----|--12------------|
--6------------|--3------------|--L------3/-8-8----|--12------------|
--6------------|--3------------|--L------3/-8-8----|--12------------|


  H.              H.              E   E  Q    Q        H.            
---------------|---------------|-------------------|----------------|
---------------|---------------|-------------------|----------------|
---------------|---------------|-------------------|----------------|
--6------------|--3------------|--3S--5--5----0----|--12------------|
--6------------|--3------------|--3S--5--5----0----|--12------------|
--6------------|--3------------|--3S--5--5----0----|--12------------|


   H.              H.               H.               E  Q    E  E  E   
----------------|----------------|---------------|--------------------|
----------------|----------------|---------------|--------------------|
----------------|----------------|---------------|--------------------|
--10------------|--3b------------|--L------------|--------------------|
--10------------|--3b------------|--L------------|--------------------|
--10------------|--3b------------|--L------------|--12--0----0--3--5--|


  H.              H.               Q    Q    Q        E  Q    E  E  E   
---------------|----------------|-----------------|--------------------|
---------------|----------------|-----------------|--------------------|
---------------|----------------|-----------------|--------------------|
---------------|--3b------------|--L----0----1----|--------------------|
---------------|--3b------------|--L----0----1----|--------------------|
--6------------|--3b------------|--L----0----1----|--12--0----0--3--5--|


  H.              H.               Q    Q    Q        E  Q    E  E  E   
---------------|----------------|-----------------|--------------------|
---------------|----------------|-----------------|--------------------|
---------------|----------------|-----------------|--------------------|
---------------|--3b------------|--L----0----1----|--------------------|
---------------|--3b------------|--L----0----1----|--------------------|
--6------------|--3b------------|--L----0----1----|--12--0----0--3--5--|


  H.              H.               Q    E  Q.         E  H        E   
---------------|----------------|-----------------|------------------|
---------------|----------------|-----------------|------------------|
---------------|----------------|-----------------|------------------|
---------------|--3b------------|--L----0--1------|------------------|
---------------|--3b------------|--L----0--1------|------------------|
--6------------|--3b------------|--L----0--1------|--12--0--------L--|


  H.              H.               H.               H.            
---------------|---------------|-----------------|---------------|
---------------|---------------|-----------------|---------------|
---------------|---------------|-----------------|---------------|
--6------------|--3------------|--10b------------|--L------------|
--6------------|--3------------|--10b------------|--L------------|
--6------------|--3------------|--10b------------|--L------------|


   E  Q    E  Q         E  Q    E  Q         E  Q    E  Q      Q     
--------------------|--------------------|--------------------------|
--------------------|--------------------|--------------------------|
--------------------|--------------------|--------------------------|
--12--0----0--3/----|--12--0----0--5/----|--12--0----0--1/----10----|
--12--0----0--3/----|--12--0----0--5/----|--12--0----0--1/----10----|
--12--0----0--3/----|--12--0----0--5/----|--12--0----0--1/----10----|


   E  Q    E  Q         E  Q    E  Q         E  Q    E  Q      Q     
--------------------|--------------------|--------------------------|
--------------------|--------------------|--------------------------|
--------------------|--------------------|--------------------------|
--12--0----0--3/----|--12--0----0--5/----|--12--0----0--1/----10----|
--12--0----0--3/----|--12--0----0--5/----|--12--0----0--1/----10----|
--12--0----0--3/----|--12--0----0--5/----|--12--0----0--1/----10----|


   E  Q    E  Q         E  Q    E  Q         E  Q    E  E  E   Q     
--------------------|--------------------|--------------------------|
--------------------|--------------------|--------------------------|
--------------------|--------------------|--------------------------|
--12--0----0--3/----|--12--0----0--5/----|--12--0----0--1-----10----|
--12--0----0--3/----|--12--0----0--5/----|--12--0----0--1-----10----|
--12--0----0--3/----|--12--0----0--5/----|--12--0----0--1-----10----|


   E  Q    E  Q         E  Q    E  Q         E  Q    E  H          
--------------------|--------------------|------------------------|
--------------------|--------------------|------------------------|
--------------------|--------------------|------------------------|
--12--0----0--3/----|--12--0----0--5/----|--12--0----0--1b--------|
--12--0----0--3/----|--12--0----0--5/----|--12--0----0--1b--------|
--12--0----0--3/----|--12--0----0--5/----|--12--0----0--1b--------|


  W                   H.           E     W                   H.           E   
-------------------|------------------|-------------------|------------------|
-------------------|------------------|-------------------|------------------|
-------------------|------------------|-------------------|------------------|
--L----------------|--L------------L--|--L----------------|--L------------L--|
--L----------------|--L------------L--|--L----------------|--L------------L--|
--L----------------|--L------------L--|--L----------------|--L------------L--|


  W                   H.           E     W                   H          
-------------------|------------------|-------------------|-----------||
-------------------|------------------|-------------------|-----------||
-------------------|------------------|-------------------|-----------||
--L----------------|--L------------L--|--L----------------|--L--------||
--L----------------|--L------------L--|--L----------------|--L--------||
--L----------------|--L------------L--|--L----------------|--L--------||




Duration Legend
---------------
W - whole
H - half
Q - quarter
E - 8th
S - 16th
T - 32nd
X - 64th
. - note dotted
|-n-|  - n-tuplets


Tablature Legend
----------------
L - tied note
x - dead note
g - grace note
(n) - ghost note
> - accentuded note
NH - natural harmonic
AH - artificial harmonic
TH - tapped harmonic
SH - semi harmonic
PH - pitch harmonic
h - hammer on
p - pull off
b - bend
br - bendRelease
pb - preBend
pbr - preBendRelease
brb - bendReleaseBend
\n/ - tremolo bar dip
\n - tremolo bar dive
-/n - tremolo bar Release up
/n\ - tremolo bar inverted dip
/n - tremolo bar return
-\n - tremolo bar Release down
S - shift slide
s - legato slide
/ -  slide into from below or out of upwards
\ -  slide into from above or out of downwards
~ - vibrato
W - wide vibrato
tr - trill
TP - tremolo picking
T - tapping
S - slap
P - pop
< - fade in
^ - brush up
v - brush down
Related for Intermission tab