Guitaretab - guitar tabs
Song name
# A B C D E F G H I J K L M N O P Q R S T U V W X Y Z

Tool - Terrible Lie tab

Highlighted       Show chord diagrams
Stardard Tuning
(Sound better tuned down one step)

Intro
Em7 Cadd9 G D D*

         (D*)
e|-2-2-2h3p2------|
B|-3-3-3-3-3------|
G|-2-2-2-2-2------|
D|-0-0-0-0-0------|
A|----------------|
E|----------------|


          Em7                      Cadd9
hey god, why are you doing this to me?
G                     D            D*
am i not living up to what i'm supposed to be?
Em7                          Cadd9
why am i seething whit this animosity?
         G                      D            D*
hey god,i think that you owe me a great big apology

Em7          Cadd9
terrible lie
G            D
terrible lie
Em7          Cadd9
terrible lie
G            D
terrible lie

        Em7                          Cadd9
hey god,i really don't know what you main
G                          D          D*
seems like salvation comes only in your dreams
Em7                   Cadd9
i feel my hatred grow all the more extreme
         G                          D       D*
hey god,can this world really be as sad as it seems

Em7          Cadd9
terrible lie
G            D
terrible lie
Em7          Cadd9
terrible lie
G            D
terrible lie
[ Tab from: http://www.guitaretab.com/t/tool/143233.html ]
Em7                         Cadd9
don't take it away from me, i need you to hold on to
G                           D          D*
don't take it away from me, i need someone to hold on to
Em7                         Cadd9      D*
don't tear it away from me, i need you to hold on to
G                           D          D*
don't tear it away from me, i need someone to hold on to
Em7                         Cadd9
don't tear it away from me, i need you to hold on to

don't tear it, don't tear it, don't tear it, don't tear it

Finger-picked Solo

---------3-------------3---------------3---------------3p2-0h2---3p2-|
-----3-----3---3---------3---3-----3-----3---3-------3---------------|
-------0-----0---0---------0---------0-----0---0---2-----------------|
---------------------2-----------0-----------------------------------|
---2---------------3-------------------------------------------------|
-0-----------------------------3-------------------------------------|4x
 Em7               Cadd9       G                   D/D*            



         Em7                         Cadd9
hey god, there's nothing left for me to hide
G                     D       D*
i lost my ignoriance, security and pride
Em7                        Cadd9
i'm all alone in the world you must despise

hey god, i believed your promises, your promises and lies

Em7         Cadd9
terrible lie
G           D
terrible lie

Chords
       Solo
   Em7  Em7 Cadd9  G D
e|--3----3----3----3-2---------|
B|--0----3----3----3-3---------|
G|--0----0----0----0-2---------|
D|--2----2----2----0-0---------|
A|--2----2----3----2-----------|
E|--0----0---------3-----------|
Related for Terrible Lie tab