Song name
# A B C D E F G H I J K L M N O P Q R S T U V W X Y Z

Tool - Flood tab

This is just an upgrade of previous tablatures.


0:00
|------------------------------------------------|
|------------------------------------------------|
|------------------------------------------------|
|------------------------------------------------|
|---------------------------11-11----------------|
|-0---0-6---6---6/////12-12----------0---0-6-----|

0:49
|------|
|-3----|
|-2----|
|-0----| let it ring
|-0----|
|-0----|

0:55
|------------------------------------------------------------------------|
|------------------------------------------------------------------------|
|------------------------------------------------------------------------|
|------------------------------------------------------------------------|
|-5-5-6-6-5-5--3-0--0-6----5-5-6-6-5-5--3-3-3-3-3-3-3-3-3-3-3-3-3-3-3-3-0|
|-5-5-6-6-5-5--3-0--0-6----5-5-6-6-5-5--3-3-3-3-3-3-3-3-3-3-3-3-3-3-3-3-0|
                                        PM-----------------------------|

1:13
|------|
|-3----|
|-2----|
|-0----| let it ring
|-0----|
|-0----|

1:19
|------------------------------------------------------------------------|
|------------------------------------------------------------------------|
|------------------------------------------------------------------------|
|------------------------------------------------------------------------|
|-5-5-6-6-5-5--3-0--0-6----5-5-6-6-5-5--3-3-3-3-3-3-3-3-3-3-3-3-3-3-3-3-0|
|-5-5-6-6-5-5--3-0--0-6----5-5-6-6-5-5--3-3-3-3-3-3-3-3-3-3-3-3-3-3-3-3-0|
                                        PM-----------------------------|
1:36
|------|
|-3----|
|-2----| 
|-0----| let it ring
|-0----|
|-0----|

1:42
|------------------------------------------------------------------------|
|------------------------------------------------------------------------|
|------------------------------------------------------------------------|
|------------------------------------------------------------------------|
|-5-5-6-6-5-5--3-0--0-6----5-5-6-6-5-5--3-3-3-3-3-3-3-3-3-3-3-3-3-3-3-3-3|
|-5-5-6-6-5-5--3-0--0-6----5-5-6-6-5-5--3-3-3-3-3-3-3-3-3-3-3-3-3-3-3-3-3|
                                        PM-------------------------------
|---------------------------------|
|---------------------------------|
|---------------------------------|
|---------------------------------| release PM gradually
|-3-3-3-3-3-3-3-3-3-3-3-3-3-3-3-0-|
|-3-3-3-3-3-3-3-3-3-3-3-3-3-3-3-0-|
PM-----------------------------|

2:05
|---------------------------------------|
|-3------------3------------3-----------|
|-2------------2------------2-----------|
|-0------------0------------0-----------| let notes ring
|-0------------0------------0-----------|
|-0------------0------------0-----------|

2:32
|------------------------|
|------------------------|
|------------------------|
|------------------------| x10
|-5-5-6-6-5-5--3-0--0-6--|
|-5-5-6-6-5-5--3-0--0-6--|

An other guitar plays this
3:16                                                3:29
|--------------------------------------------|     |--------|
|--------------------------------------------|     |--------|
|-----10^-------------10^--------------10^---|     |--10b12-|
|-12------0-------12-----12--------12-----12-|     |--------|
|--------------------------------------------|     |--------|
|--------------------------------------------|     |--------|




3:31
|-----------------------------------------------|
|-----------------------------------------------|
|-----------------------------------------------|
|-----------------------------------------------|
|-5-5-6-6-5-5--3-3-3-3-3-3-3-3-3-3-3-3-3-3-3-3-0|
|-5-5-6-6-5-5--3-3-3-3-3-3-3-3-3-3-3-3-3-3-3-3-0|
               PM-----------------------------|

3:42
|---------|
|-3-------|
|-2-------| 
|-0-------| x7 let notes ring
|-0-------|
|-0-------|

4:23
|--------|
|-3----3-|
|-2----2-|
|-0----0-| let notes ring
|-0----0-|
|-0----0-|



4:29
|---------------------------|
|---------------------------|
|---------------------------|
|---------------------------| x4
|-3-5-6-5-0-3-5-0-6-5-0-3-0-|
|---------------------------|


|---------------------------|
|---------------------------|
|---------------------------|
|---------------------------| x8 (at the end release PM gradually)
|-3-5-6-5-0-3-5-0-6-5-0-3-0-|
|---------------------------|
     PM--------------------|

|---------------------------|
|---------------------------|
|---------------------------|
|---------------------------| x4
|-3-5-6-5-0-3-5-0-6-5-0-3-0-|
|-3-5-6-5-0-3-5-0-6-5-0-3-0-|

|---------------------------|
|---------------------------|
|---------------------------|
|---------------------------| x4 (with Wah)
|-3-5-6-5-0-3-5-0-6-5-0-3-0-|
|---------------------------|

5:24
|-------------------------------------------|
|-------------------------------------------|
|-------------------------------------------|
|-------------------------------------------|
|-3---3---3---3--0h3-3--0h3-3--0h3-3--0h3-3-|
|-3---3---3---3--0h3-3--0h3-3--0h3-3--0h3-3-|
                   PM-|   PM-|   PM-|   PM-|

|---------------------------|
|---------------------------|
|---------------------------|
|---------------------------| x4
|-3-5-6-5-0-3-5-0-6-5-0-3-0-|
|---------------------------|

|---------------------------|    |-----|
|---------------------------|    |-----|
|---------------------------|    |-----| 
|---------------------------| x4 |-----|  end with the beginning
|-3-5-6-5-0-3-5-0-6-5-0-3-0-|    |-3-5-|
|---------------------------|    |-----|
     PM--------------------|

5:53
|------------|
|------------|
|------------|
|------------|
|-5---0----0-|
|-5---0----0-|

6:00                  with some weird ass effect
|-------------------------------------------------------------------------|
|-------------------------------------------------------------------------|
|-------------------------------------------------------------------------|
|-------------------------------------------------------------------------|
|-0/10~~-9-10-12~~b14--13p12-10h12-13p12-10-10h12-13p12-15p12-16p15-15\\\-|
|-------------------------------------------------------------------------|

6:11
|------------------|
|------------------|
|------------------|
|------------------| let notes ring
|-3----5----6----0-|
|-3----5----6----0-|

6:22
|---------------------------|
|---------------------------|
|---------------------------|
|---------------------------| x4 
|-3-5-6-5-0-3-5-0-6-5-0-3-0-|
|-3-5-6-5-0-3-5-0-6-5-0-3-0-|

6:33
|----------------------|    |-----|
|----------------------|    |-----|
|----------------------|    |-----|
|----------------------| x4 |-----| agian end with the beginning
|-3-5-6-5--3-5--6-5--3-|    |-3-5-|
|-3-5-6-5--3-5--6-5--3-|    |-3-5-|

6:43
|----------|
|----------|
|----------|
|----------| x3 let notes ring
|-0----5---|
|-0----5---|

7:00
|---------------------------------------------------------------------|
|---------------------------------------------------------------------|
|---------------------------------------------------------------------|
|---------------------------------------------------------------------|
|-0-0-6-6-5--8--0-1-2-3--0-0-6-6-5--8--0-3-4-3--0-0-6-6-5--8--0-1-2-3-|
|-0-0-6-6-5--8--0-1-2-3--0-0-6-6-5--8--0-3-4-3--0-0-6-6-5--8--0-1-2-3-|

|------------------------------|
|------------------------------|
|------------------------------|
|------------------------------| x2
|-0-0-6-6-5--8--0-3-3-3-3-3-3--|
|-0-0-6-6-5--8--0-3-3-3-3-3-3--|
                PM-----------|               
                  really fast
                     
                    7:19
|-----------------| |-----| |-----------------------------------|
|-----------------| |-----| |-----------------------------------|
|-----------------| |-----| |-----------------------------------|
|-----------------| |-----| |-----------------------------------| x4
|-0-0-6-6-5--8--0-| |-3-5-| |-5-5-6-5-5-5-3-5-5-5-6-5-5-5-3-3-5-|
|-0-0-6-6-5--8--0-| |-----| |-----------------------------------|
                   PM----|  PM---------------------------------|
                               tremolo picking
7:30
|---------------------------------|
|---------------------------------|
|---------------------------------|
|---------------------------------| x4
|-3-x-x-x-x-3-x-x-x-x-3-x-x-5-6-5-|
|-3-x-x-x-x-3-x-x-x-x-3-x-x-5-6-5-|

|---------------------------|
|---------------------------|
|---------------------------|
|---------------------------|
|-3--0--0--3--0--0--3--0--0-|
|-3--0--0--3--0--0--3--0--0-|

End

Any suggestion mail it to mosig_man@hotmail.com

Tap to rate this tab
# A B C D E F G H I J K L M N O P Q R S T U V W X Y Z