Guitaretab - guitar tabs
Song name
# A B C D E F G H I J K L M N O P Q R S T U V W X Y Z

Tool - Part Of Me tab

-------------------------------------------------------------------------------
			     Part Of Me - Tool                                
-------------------------------------------------------------------------------

Tabbed by: Weavel
Email: tool_jack@yahoo.com

Tuning: DADGBE

  x  have fingers barely of the fret board
 pm  Palm Mute
[ Tab from: http://www.guitaretab.com/t/tool/19561.html ]
    Riff A    
e|--------------------------------------------------------|
B|--------------------------------------------------------|
G|--------------------------------------------------------| 
D|-2-x-x-2-x-x-5-x-x-5-x-x-2-x-x-2-x-x-6-6-6-5-5-5-3-3-3--|
A|-2-x-x-2-x-x-3-x-x-3-x-x-2-x-x-2-x-x-6-6-6-5-5-5-3-3-3--|
D|-2-x-x-2-x-x---------x-x-2-x-x-2-x-x-6-6-6-5-5-5-3-3-3--|
   
   Riff B                            Riff C
e|----------------------------   e--------------------------|
B|----------------------------   B--------------------------|
G|----------------------------   G--------------------------|
D|-0-6-5-0-3-0-6-5-0-3-3-3----   D--------------------------|
A|-0-6-5-0-3-0-6-5-0-3-3-3----   A--------------------------|
D|-0-6-5-0-3-0-6-5-0-3-3-3----   D-0-6-5-0-3-0-6-5-0-3-3-3--|
                                  pm . . . . . . . . . . 
   Riff D                            Riff E
e|-------------------------   e----------------------------|
B|-------------------------   B----------------------------|
G|-------------------------   G-----------------------1----|
D|-2-x-5-x-2-x-5-x-2-x-5---   D-1-0---3---1-0---3-1-0------|
A|-2-x-3-x-2-x-3-x-2-x-3---   A-----0---0-----0------------|
D|-2-x-----2-x-----2-x-----   D----------------------------|

   Riff F
e|---------------------------------------------------------------------------|
B|---------------------------------------------------------------------------|
G|---------------------------------------------------------------------------|
D|---------------------------------------------------------------------------|
A|---------------------------------------------------------------------------|
D|-3---000000000000000000000000000000000000000000000000----------------------|
      pm........................................
   Listen to the song to get the transition from palm mute and regular.
    Riff G
e|---------------------------------------------------------------------------|
B|---------------------------------------------------------------------------|
G|---------------------------------------------------------------------------|
D|-5---5-7-9-7----5-7-9-5----5-7-9-7----5-7-9--------------------------------|
A|---------------------------------------------------------------------------|
D|---------------------------------------------------------------------------|

Structure
Riff A x2
Riff B x4
Riff D x1
Riff C x2
Riff E x2
Riff C x2
Riff E x2
Riff B x1
Riff F x1
Riff A x2
Riff G x1
Riff B x6
Riff D x1
Riff C x6
Riff D x1
Riff B x6
Riff E x2
Riff B x2
Riff E x2
Riff B x1

This is my first tab that I submitted, I hope it works for you.
I love this song.  it's good for beginners too.  Enjoy!!
===============================================================================
Related for Part Of Me tab
Advertisement will be closed in 10 seconds