Song name
# A B C D E F G H I J K L M N O P Q R S T U V W X Y Z

Tool - Jerk-off tab

Song: Jerk-Off
Band: Tool
Album: Opiate

Drop D tunning


(distortion)

*feedback*

e----------------------------------------|
b----------------------------------------|
g----------------------------------------|
d----------------------------------------| x4
a------19----20--19------19----20p19-----|
d--19-----19---------19-----19-------20--|

                           x3
e-----------------------------|---------------------------|
b-----------------------------|---------------------------|
g-----------------------------|---------------------------|
d-----------------------------|---------------------------|
a-----7---8--7-----7---8p7----|-----7---8--7-----7---8p7--|
d--7----7-------7----7-----8--|--7----7-------7----7------|

e-----------------------|
b-----------------------|
g-----------------------|
d--8--7-----------------| x2
a--8--7-----------------|
d--8--7-----------------|

e------------------------------|
b------------------------------|
g------------------------------|
d--12--0-0-12-0-12-0-12---3-3--| x4
a--12--0-0-12-0-12-0-12---3-3--|
d--12--0-0-12-0-12-0-12---3-3--|

e--------------------------------------|
b--------------------------------------|
g--------------------------------------|
d--------------------------------------| x4
a--5-555-5-555-5-555--8-888-3-333-333--|
d--5-555-5-555-5-555--8-888-3-333-333--|
  pm - - - - - - - - - - - - - - - - |

e------------------------------|
b------------------------------|
g------------------------------|
d--0-5--0-5--0-5--0-8--0-33-3--| x4
a--0-5--0-5--0-5--0-8--0-33-3--|
d--0-5--0-5--0-5--0-8--0-33-3--|

                           x3
e-----------------------------|---------------------------|
b-----------------------------|---------------------------|
g-----------------------------|---------------------------|
d-----------------------------|---------------------------|
a-----7---8--7-----7---8p7----|-----7---8--7-----7---8p7--|
d--7----7-------7----7-----8--|--7----7-------7----7------|

e-----------------------|
b-----------------------|
g-----------------------|
d--8--7-----------------| x2
a--8--7-----------------|
d--8--7-----------------|

e------------------------------|
b------------------------------|
g------------------------------|
d--12--0-0-12-0-12-0-12---3-3--| x4
a--12--0-0-12-0-12-0-12---3-3--|
d--12--0-0-12-0-12-0-12---3-3--|

e--------------------------------------|
b--------------------------------------|
g--------------------------------------|
d--------------------------------------| x4
a--5-555-5-555-5-555--8-888-3-333-333--|
d--5-555-5-555-5-555--8-888-3-333-333--|
  pm - - - - - - - - - - - - - - - - |

e------------------------------|
b------------------------------|
g------------------------------|
d--0-5--0-5--0-5--0-8--0-33-3--| x4
a--0-5--0-5--0-5--0-8--0-33-3--|
d--0-5--0-5--0-5--0-8--0-33-3--|

e-----------------------------|
b-----------------------------|
g-----------------------------|
d-----------------------------|
a-----7---8--7-----7---8p7----|
d--7----7-------7----7-----8--|

e---------------------------------------------------------|
b---------------------------------------------------------|
g---------------------------------------------------------|
d-----2---3--2-----2---3p2--------3---4--3-----3---4p3----|
a---------------------------------------------------------|
d--2----2-------2----2------4--3----3-------3----3-----4--|

e---------------------------------------------------------|
b---------------------------------------------------------|
g---------------------------------------------------------|
d-----2---3--2-----2---3p2--------3---4--3-----3---4p3----|
a---------------------------------------------------------|
d--2----2-------2----2------4--3----3-------3----3-----6--|

e--------------------------------------------------------------|
b--------------------------------------------------------------|
g--------------------------------------------------------------|
d-----5---6--5-----5---6p5--------5---6--5-----5---6p5--8--10--|
a-------------------------------------------------------8--10--|
d--5----5-------5----5------6--5----5-------5----5------8--10--|

*hold for two bars*

*rest for ten more bars*

e------------------------------|
b------------------------------|
g------------------------------|
d--0-5--0-5--0-5--0-8--0-33-3--| x4
a--0-5--0-5--0-5--0-8--0-33-3--|
d--0-5--0-5--0-5--0-8--0-33-3--|

e------------------------------------|
b--15--(tremolo pick for four bars)--|
g--14--------------------------------|
d------------------------------------|
a------------------------------------|
d------------------------------------|

                             x3
e-------------------------------|--------------------|
b-------------------------------|--------------------|
g-------------------------------|--------------------|
d--17--19--15--12--15p12-15-16--|--17--19--15b-------|
a--17--19--15--12--15p12-15-16--|--17--19--15b-------|
d--17--19--15--12--15p12-15-16--|--17--19--15b-------|

                            x7
e------------------------------|------------------------------|
b------------------------------|------------------------------|
g------------------------------|------------------------------|
d--0-5--0-5--0-5--0-8--0-33-3--|--0-5--0-5--0-5--0-5--0-55-5--|
a--0-5--0-5--0-5--0-8--0-33-3--|--0-5--0-5--0-5--0-5--0-55-5--|
d--0-5--0-5--0-5--0-8--0-33-3--|--0-5--0-5--0-5--0-5--0-55-5--|
Tap to rate this tab
# A B C D E F G H I J K L M N O P Q R S T U V W X Y Z