Song name
# A B C D E F G H I J K L M N O P Q R S T U V W X Y Z

Tool - Right In Two tab

Artist: Tool
Song: Right in Two
Album: 10,000 Days
Tabber: Mike Heese

I've seen a lot of tabs for this song and I've noticed that they all leave
out one important factor: picking near the bridge. It really helps duplicate
the sound of the song. A LOT. 

0:00 - 1:19
Clean, pick close to bridge
e-|----------------------------------------------------------|
B-|o---------------------------------------------------------|
G-|----------------------------------------------------------|
D-|-----------7/-------------10--------------7/---------12---|
A-|o-------5--------------8---------------5------------------|
D-|---0--------------8---------p0----5--------------10-------|

e-|------------------------------------------------------------|
B-|-----------------------------------------------------------o|
G-|------------------------------------------------------------|
D-|-----------7/-------------10--------------7----------12/13--|
A-|--------5--------------8---------------5-------------------o|
D-|---0--------------8---------p0----5--------------10---------|

1:19 - 1:42
All palm muted
e-|---------------------------------------------------------------|
B-|o-------------------------------------------------------------o|
G-|---------------------------------------------------------------|
D-|------------12-------------12---------------12-------10--------|
A-|o--------8---------------8---------------8--------------10----o|
D-|---0---------------0---------------0---------------------------|

1:42 - 2:22
Close to the bridge
e-|------------------------------------------|
B-|o-----------------------------------------|
G-|----------------<7>-----------------------|
D-|--------------------------<7>--------12---|
A-|o-----<7>---------------------------------|
D-|--0---------8---------5---------10--------|

e-|--------------------------------------------|
B-|-------------------------------------------o|
G-|----------------<7>-------------------------|
D-|--------------------------<7>--------12/13--|
A-|------<7>----------------------------------o|
D-|--0---------8---------5---------10----------|

e-|-------------------------------------------|
B-|-------------------------------------------|
G-|-------------------------------------------|
D-|--------------------------<7>--------12/13-|
A-|-------0----1------------------------------|
D-|--0--------------3----5---------10---------|

e-|------------------------------------------|
B-|------------------------------------------|
G-|----------------<7>-----------------------|
D-|--------------------------<7>--------12---|
A-|------<7>---------------------------------|
D-|--0---------8---------5---------10--------|

e-|---------------------------------------|
B-|---------------------------------------|
G-|---------------------------------------|
D-|---------------------------------------|
A-|-------0----1--------------3-------5h6-|
D-|--0--------------3----5----------------|

All palm muted
e-|---------------------------------------------------------------|
B-|o-------------------------------------------------------------o|
G-|---------------------------------------------------------------|
D-|------------12-------------12---------------12-------10--------|
A-|o--------8---------------8---------------8--------------10----o|
D-|---0---------------0---------------0---------------------------|

Then this little fill thing comes in:
e-|-----------------------------------------------|
B-|-----------------------------------------------|
G-|-----------------------------12----12----14----|
D-|------12---12---12---12---12----12----12----12-|
A-|---------8----8----8----8----------------------|
D-|---0-------------------------------------------|

Close to bridge
e-|--------------------------------------------------|
B-|--------------------------------------------------|
G-|--------------------------------------------------|
D-|--------------------------------------------------|
A-|-----------0-----1-----3--1----------3----7----5--|
D-|--0-----5-----0--------------0--5-----------------|

e-|------------------------------------------------------------|
B-|------------------------------------------------------------|
G-|------------------------------------------------------------|
D-|-----------7/-------------10--------------7----------12/13--|
A-|--------5--------------8---------------5--------------------|
D-|---0--------------8---------p0----5--------------10---------|

e-|--------------------------------------------------|
B-|--------------------------------------------------|
G-|--------------------------------------------------|
D-|--------------------------------------------------|
A-|-----------0-----1-----3--1----------3----7----5--|
D-|--0-----5-----0--------------0--5-----------------|

e-|-----------------------------------------------|
B-|-----------------------------------------------|
G-|-----------------------------------------------|
D-|-----------7/-------------10-----------5/----7-|
A-|--------5--------------8---------------3/----5-|
D-|---0--------------8---------p0----3----------5-|

Chorus: Switch on distortion, Feedback         Last time
e-|-------------------------------------------|---------|
B-|o-----------------------------------------o|---------|
G-|-------------------------------------------|---------|
D-|----------7/---10-----------12---12---7----|---------|
A-|o------5-------8------------10---10---5---o|---------|
D-|--0------------8--------10-------10---5----|-p0------|


Tabla Solo: Clean, really quiet
e-|----------------|
B-|o--------------o|
G-|----------------|
D-|----------------|
A-|o--3---3-5-3-5-o|
D-|----------------|

Near the end:
e-|--------------------|
B-|o------------------o|
G-|--------------------|
D-|--------------------|
A-|o--3-5-5-5-3-5-5-5-o|
D-|--------------------|

REALLY near the end: Switch on distortion
e-|--------------------------------|
B-|--------------------------------|
G-|--------------------------------|
D-|-10-12-10-12--10-12-10-12~--10--|
A-|--------------------------------|
D-|--------------------------------|

Bridge: Pick close to the bridge
e-|--------------------------------------------------------------|
B-|o------------------------------------------------------------o|
G-|--------------------------------------------------------------|
D-|--------------------------------------------------------------|
A-|o------------------------------------------------------------o|
D-|--0-----10--0--10--0-----10--0--10--0-----10--0--10--0----10~-|

e-|--------------------------------------------------------------|
B-|o------------------------------------------------------------o|
G-|--------------------------------------------------------------|
D-|--------------------------------------------------------------|
A-|o--------------3---------------3---------------3-----3~------o|
D-|--0-----2h3h5-----0-----2h3h5-----0-----2h3h5-----0-----------|

Breakdown: No guitar (you can put in some feedback if you want)

Bridge Part 2: Close to bridge (except for palm mutes)
e-|--------------------------------------------------------------
B-|o-------------------------------------------------------------
G-|--------------------------------------------------------------
D-|--------------------------------------------------------------
A-|o-------------------------------------------------------------
D-|--0-----10-10-0-0-10-10-0-----10-10-0-0-10-10-0-----10-10-0-0-
pm          .  . . .  .  .        .  . . .  .  .        .  . . .

e-|--------------------|
B-|-------------------o|
G-|--------------------|
D-|--------------------|
A-|-------------------o|
D-|--10-10-0----10(\)--|
pm    .  .      

e-|-------------------------------------------------------|
B-|o-----------------------------------------------------o|
G-|-------------------------------------------------------|
D-|-----------0-------------0--------------0--------------|
A-|o------0h3---3-------0h3---3-------0h3-----3-------3~-o|
D-|--0-------------0-------------0---------------0--------|

w/Wah or if you don't have one pinch harmonics will do
e-|----------------------------------------------|
B-|o--------------------------------------------o|
G-|----------------------------------------------|
D-|----------------------------------------------|
A-|o--3---5-------3---5-------3---5-------3---5-o|
D-|----------------------------------------------|

e-|----------------------------------------------|
B-|o--------------------------------------------o|
G-|----------------------------------------------|
D-|--------------------------------------3-------|
A-|o-----3---5-------6-------3---5-----------5--o|
D-|----------------------------------------------|

Wah off, the open notes aren't there in the recording they just sound cool
e-|--------------------------------------------------------------|
B-|-------------------------------------------------------------*|
G-|--------------------------------------------------------------|
D-|------5---7-------8-------5---7------10---7-------------------|
A-|------3---5-------6-------3---5-------8---5------------------*|
D-|--0-----------0-------0-----------0---------------------------|
pm   .           .       .           .

e-|--------------------------------------------------------------|
B-|o------------------------------------------------------------o|
G-|--------------------------------------------------------------|
D-|--------------------------------------------------------------|
A-|o------------------------------------------------------------o|
D-|--0-----10--0--10--0-----10--0--10--0-----10--0--10--0----10~-|

e-|--------------------------------------------------------------|
B-|o------------------------------------------------------------o|
G-|--------------------------------------------------------------|
D-|--------------------------------------------------------------|
A-|o--------------3---------------3---------------3-----3~------o|
D-|--0-----2h3h5-----0-----2h3h5-----0-----2h3h5-----0-----------|

e-|--------------------------------------------------|
B-|--------------------------------------------------|
G-|--------------------------------------------------|
D-|--------------------------------------------------|
A-|-----------0-----1-----3--1----------3----7----5--|
D-|--0-----5-----0--------------0--5-----------------|

e-|-----------------------------------------------|
B-|-----------------------------------------------|
G-|-----------------------------------------------|
D-|-----------7/-------------10-----------5/----7-|
A-|--------5--------------8---------------3/----5-|
D-|---0--------------8---------p0----3----------5-|

Chorus: Switch on distortion, Feedback         Third time
e-|-------------------------------------------|---------|
B-|o-----------------------------------------o|---------|
G-|-------------------------------------------|---------|
D-|----------7/---10-----------12---12---7----|---------|
A-|o------5-------8------------10---10---5---o|---------|
D-|--0------------8--------10-------10---5----|-5h7-3p0-|

Don't hit the last chord the fourth time, just switch off distortion and
play outro:
e-|-----------------------------------------------------------|
B-|-----------------------------------------------------------|
G-|-----------------------------------------------------------|
D-|-----------7/-------------10--------------7----------12/13-|
A-|--------5--------------8---------------5-------------------|
D-|---0--------------8---------p0----5--------------10--------|

All palm muted
e-|---------------------------------------------------------------|---|
B-|o-------------------------------------------------------------o|---|
G-|---------------------------------------------------------------|---|
D-|------------12-------------12---------------12-------10--------|---|
A-|o--------8---------------8---------------8--------------10----o|---|
D-|---0---------------0---------------0---------------------------|-0-|
Tap to rate this tab
 
# A B C D E F G H I J K L M N O P Q R S T U V W X Y Z