Song name
# A B C D E F G H I J K L M N O P Q R S T U V W X Y Z

Tool - Schism tab

Band: Tool
Song: Schism


This is the intro of it.

----------------------------------------------------------------------
----------------------------------------------------------------------
----------------------------------------------------------------------
-9-----7-----5-----7---------9-----7-----5-----7----------------------
-7-----5-----3-----5---------7-----5-----3-----5------5---------------
----------------------------------------------------------------------

This is the rest.


----------------------------------------------------------------------
----------------------------------------------------------------------
----------------------------------------------------------------------
---------------------------------5------------------------------------
-0-5-7-0--5--0----0-5-7-0--5--0-----0---------------------------------
----------------------------------------------------------------------


If you have any questions or comments email me at Fats3003@aol.com
Tap to rate this tab
 
# A B C D E F G H I J K L M N O P Q R S T U V W X Y Z