Song name
# A B C D E F G H I J K L M N O P Q R S T U V W X Y Z

Tool - Schism tab

Schism \ Tool
Im not 100% on everything but it is close.

Please enjoy
e|-------------------------------------------------------------|Intro
b|-------------------------------------------------------------|
g|--3--2--5--7-------3--2--5--7--------------------------------|
d|--0--3--5--8-------0--3--5--8--------------------------------|
a|--x--x--x--x-------x--x--x--x--------------------------------|
D|--0--3--5--8-------0--3--5--8--0-----------------------------|

e|-------------------------------------------------------------|Part 2
b|-------------------------------------------------------------|
g|-------------------------------------------------------------|
d|-----3---2------3---2---5------3---2-----3---2---5-----------|X2
a|--035--0---0-035--0---0---0-035--0--0-035--0---0-------------|
D|-------------------------------------------------------------|
     This part above is done on bass, but if you want to play the whole
thing on guitar play this.
e|-------------------------------------------------------------|Part 3
b|-------------------------------------------------------------|
g|-----3---2------3---2---5----3---2-----3---2---5-------------|X2
d|--035--0---0-035--0---0---035--0--0-035--0---0---------------|
a|-------------------------------------------------------------|
D|-------------------------------------------------------------|

e|-----------------3---------------5---------------------------|Part 4
b|--3-----------------3---------------3------------------------|Played with
g|-------------------------------------------------------------|Part 2
d|----0--------------------------------------------------------|
a|-------------------------------------------------------------|
D|------0------------------------------------------------------|

e|-------------------------------------------------------------|Part 5
b|-------------------------------------------------------------|
g|-----5---4------5---4---7------5---4------5---4---7----------|x2
d|--057--0---0-057--0---0---0-057--0---0-057--0---0------------|
a|-------------------------------------------------------------|
D|-------------------------------------------------------------|

e|-------------------------------------------------------------|Part 6
b|-------------------------------------------------------------|
g|-------------------------------------------------------------|
d|---------10---9------------10---9---12-----------------------|
a|--0,10,12---0---0---0,10,12---0---0----0---------------------|
D|-------------------------------------------------------------|

e|-------------------------------------------------------------|Part 6.5
b|-------------------------------------------------------------|
g|-------------------------------------------------------------|
d|---------10---9----------10---9---12-------------------------|
a|--0,10,12---0---0-0,10,12---0---0----0-----------------------|
D|-------------------------------------------------------------|

e|-------------------------------------------------------------|Part 6
b|-------------------------------------------------------------|
g|-------------------------------------------------------------|
d|---------10---9------------10---9---12-----------------------|
a|--0,10,12---0---0---0,10,12---0---0----0---------------------|
D|-------------------------------------------------------------|

e|-------------------------------------------------------------|Part 6.5
b|-------------------------------------------------------------|
g|-------------------------------------------------------------|
d|---------10---9----------10---9---12-------------------------|
a|--0,10,12---0---0-0,10,12---0---0----0-----------------------|
D|-------------------------------------------------------------|

e|-------------------------------------------------------------|Part 7
b|-------------------------------------------------------------|
g|---------10---9------------10---9---12-----------------------|
d|--0,10,12---0---0---0,10,12---0---0----0---------------------|
a|-------------------------------------------------------------|
D|-------------------------------------------------------------|
      This is not how it goes, but it sounds better with the harmony
e|-------------------------------------------------------------|Part 5
b|-------------------------------------------------------------|
g|-----5---4------5---4---7------------------------------------|
d|--057--0---0-057--0---0---0----------------------------------|
a|-------------------------------------------------------------|
D|-------------------------------------------------------------|

e|-------------------------------------------------------------|Part 7
b|-------------------------------------------------------------|
g|---------10---9------------10---9---12-----------------------|
d|--0,10,12---0---0---0,10,12---0---0----0---------------------|
a|-------------------------------------------------------------|
D|-------------------------------------------------------------|

e|-------------------------------------------------------------|Part 5
b|-------------------------------------------------------------|
g|-----5---4------5---4---7------------------------------------|
d|--057--0---0-057--0---0---0----------------------------------|
a|-------------------------------------------------------------|
D|-------------------------------------------------------------|

e|-------------------------------------------------------------|Part 7
b|-------------------------------------------------------------|
g|---------10---9------------10---9---12-----------------------|
d|--0,10,12---0---0---0,10,12---0---0----0---------------------|
a|-------------------------------------------------------------|
D|-------------------------------------------------------------|

e|-------------------------------------------------------------|Part 5
b|-------------------------------------------------------------|
g|-----5---4------5---4---7------------------------------------|
d|--057--0---0-057--0---0---0----------------------------------|
a|-------------------------------------------------------------|
D|-------------------------------------------------------------|

e|-------------------------------------------------------------|Part 7
b|-------------------------------------------------------------|
g|---------10---9------------10---9---12-----------------------|
d|--0,10,12---0---0---0,10,12---0---0----0---------------------|
a|-------------------------------------------------------------|
D|-------------------------------------------------------------|

e|-------------------------------------------------------------|Part 5
b|-------------------------------------------------------------|
g|-----5---4------5---4---7------------------------------------|
d|--057--0---0-057--0---0---0----------------------------------|
a|-------------------------------------------------------------|
D|-------------------------------------------------------------|

e|-------------------------------------------------------------|Part 6
b|-------------------------------------------------------------|
g|-------------------------------------------------------------|
d|---------10---9------------10---9---12-----------------------|
a|--0,10,12---0---0---0,10,12---0---0----0---------------------|
D|-------------------------------------------------------------|

e|-------------------------------------------------------------|Part 6.5
b|-------------------------------------------------------------|
g|-------------------------------------------------------------|
d|---------10---9----------10---9---12-------------------------|
a|--0,10,12---0---0-0,10,12---0---0----0-----------------------|
D|-------------------------------------------------------------|

e|-------------------------------------------------------------|Part 6
b|-------------------------------------------------------------|
g|-------------------------------------------------------------|
d|---------10---9------------10---9---12-----------------------|
a|--0,10,12---0---0---0,10,12---0---0----0---------------------|
D|-------------------------------------------------------------|

e|-------------------------------------------------------------|Part 6.5
b|-------------------------------------------------------------|
g|-------------------------------------------------------------|
d|---------10---9----------10---9---12-------------------------|
a|--0,10,12---0---0-0,10,12---0---0----------------------------|
D|-------------------------------------------------------------|

e|-------------------------------------------------------------|Part 8
b|-------------------------------------------------------------|
g|-------------------------------------------------------------|
d|--0-x-x-3-x-x-5-3-x-x-3-5-5----------------------------------|x3
a|--0-x-x-3-x-x-5-3-x-x-3-5-5----3-----------------------------|
D|--0-x-x-3-x-x-5-3-x-x-3-5-5-035------------------------------|

e|-------------------------------------------------------------|Part 8.5
b|-------------------------------------------------------------|
g|------------------------------------------------12-----------|
d|--0-x-x-3-x-x-353-x-x-3-5-5---------------------12-----------|
a|--0-x-x-3-x-x-353-x-x-3-5-5----3----------------12-----------|
D|--0-x-x-3-x-x-353-x-x-3-5-5-035------------------------------|

e|-------------------------------------------------------------|Part 7
b|-------------------------------------------------------------|
g|---------10---9------------10---9---12-----------------------|
d|--0,10,12---0---0---0,10,12---0---0----0---------------------|
a|-------------------------------------------------------------|
D|-------------------------------------------------------------|
    
e|-------------------------------------------------------------|Part 5
b|-------------------------------------------------------------|
g|-----5---4------5---4---7------------------------------------|
d|--057--0---0-057--0---0---0----------------------------------|
a|-------------------------------------------------------------|
D|-------------------------------------------------------------|

e|-------------------------------------------------------------|Part 7
b|-------------------------------------------------------------|
g|---------10---9------------10---9---12-----------------------|
d|--0,10,12---0---0---0,10,12---0---0----0---------------------|
a|-------------------------------------------------------------|
D|-------------------------------------------------------------|

e|-------------------------------------------------------------|Part 5
b|-------------------------------------------------------------|
g|-----5---4------5---4---7------------------------------------|
d|--057--0---0-057--0---0---0----------------------------------|
a|-------------------------------------------------------------|
D|-------------------------------------------------------------|

e|-------------------------------------------------------------|Part 7
b|-------------------------------------------------------------|
g|---------10---9------------10---9---12-----------------------|
d|--0,10,12---0---0---0,10,12---0---0----0---------------------|
a|-------------------------------------------------------------|
D|-------------------------------------------------------------|

e|-------------------------------------------------------------|Part 5
b|-------------------------------------------------------------|
g|-----5---4------5---4---7------------------------------------|
d|--057--0---0-057--0---0---0----------------------------------|
a|-------------------------------------------------------------|
D|-------------------------------------------------------------|

e|-------------------------------------------------------------|Part 7
b|-------------------------------------------------------------|
g|---------10---9------------10---9---12-----------------------|
d|--0,10,12---0---0---0,10,12---0---0----0---------------------|
a|-------------------------------------------------------------|
D|-------------------------------------------------------------|

e|-------------------------------------------------------------|Part 5
b|-------------------------------------------------------------|
g|-----5---4------5---4---7------------------------------------|
d|--057--0---0-057--0---0---0----------------------------------|
a|-------------------------------------------------------------|
D|-------------------------------------------------------------|

e|-------------------------------------------------------------|Part 6
b|-------------------------------------------------------------|
g|-------------------------------------------------------------|
d|---------10---9------------10---9---12-----------------------|
a|--0,10,12---0---0---0,10,12---0---0----0---------------------|
D|-------------------------------------------------------------|

e|-------------------------------------------------------------|Part 6.5
b|-------------------------------------------------------------|
g|-------------------------------------------------------------|
d|---------10---9----------10---9---12-------------------------|
a|--0,10,12---0---0-0,10,12---0---0----0-----------------------|
D|-------------------------------------------------------------|

e|-------------------------------------------------------------|Part 6
b|-------------------------------------------------------------|
g|-------------------------------------------------------------|
d|---------10---9------------10---9---12-----------------------|
a|--0,10,12---0---0---0,10,12---0---0----0---------------------|
D|-------------------------------------------------------------|

e|-------------------------------------------------------------|Part 6.5
b|-------------------------------------------------------------|
g|-------------------------------------------------------------|
d|---------10---9----------10---9---12-------------------------|
a|--0,10,12---0---0-0,10,12---0---0----------------------------|
D|-------------------------------------------------------------|

e|-------------------------------------------------------------|Part 6.5.5
b|-------------------------------------------------------------|
g|-------------------------------------------------------------|
d|---------10---9---12-----------------------------------------|x7
a|--0,10,12---0---0----0---------------------------------------|
D|-------------------------------------------------------------|

e|-------------------------------------------------------------|Part 6.5.5.5
b|-------------------------------------------------------------|
g|-------------------------------------------------------------|
d|---------10---9----------------------------------------------|
a|--0,10,12---0---0--------------------------------------------|
D|-------------------------------------------------------------|

e|-------------------------------------------------------------|Part 9
b|-------------------------------------------------------------|
g|-------------------------------------------------------------|
d|-14----17----14----19----12----14----10----12--10--12--------|X4
a|-0-0-0-0-0-0-0-0-0-0-0-0-0-0-0-0-0-0-0-0-0-0-0-0-0-0-0-0-----|
D|-------------------------------------------------------------|

e|-------------------------------------------------------------|Part 9.5
b|-------------------------------------------------------------|
g|-------------------------------------------------------------|
d|/14---/17---/14---/19---\12---/14---\10---/12-\10-/12--------|X4
a|-0-0-0-0-0-0-0-0-0-0-0-0-0-0-0-0-0-0-0-0-0-0-0-0-0-0-0-0-----|
D|-------------------------------------------------------------|

e|-------------------------------------------------------------|Part 9
b|-------------------------------------------------------------|
g|-------------------------------------------------------------|
d|-14----17----14----19----12----14----10----12--10--12--------|X3
a|-0-0-0-0-0-0-0-0-0-0-0-0-0-0-0-0-0-0-0-0-0-0-0-0-0-0-0-0-----|
D|-------------------------------------------------------------|

e|-------------------------------------------------------------|Part 9.5.5
b|-------------------------------------------------------------|
g|-------------------------------------------------------------|
d|-14----17----14----19----12----14----10---10h12--10--12------|
a|-0-0-0-0-0-0-0-0-0-0-0-0-0-0-0-0-0-0-0-0-0-0-0-0-0-0-0-0-----|
D|-------------------------------------------------------------|

e|-----------------------------------------------------------------|
b|-----------------------------------------------------------------|Part 9.9
g|-----------------------------------------------------------------|
d|-14----17----14----17----14--14--14----17----14----17----14--14--|
a|-0-0-0-0-0-0-0-0-0-0-0-0-0-0-0-0-0-0-0-0-0-0-0-0-0-0-0-0-0-0-0-0-|
D|-----------------------------------------------------------------|

e|-----------------|Part 10
b|-----------------|
g|-----------------|
d|--------10---9---|
a|-0,10,12---0---0-|
D|-----------------|

e|-----------------------------------------------------------------|
b|-----------------------------------------------------------------|Part 9.9
g|-----------------------------------------------------------------|
d|-14----17----14----17----14--14--14----17----14----17----14--14--|
a|-0-0-0-0-0-0-0-0-0-0-0-0-0-0-0-0-0-0-0-0-0-0-0-0-0-0-0-0-0-0-0-0-|
D|-----------------------------------------------------------------|

e|------------------------------------------------------------------|Part 11
b|------------------------------------------------------------------|
g|------------------------------------------------------------------|
d|---10-----5-----12----7---14----17----14----17----14--17--14------|x3
a|-8------3-----10---10-7---0-0-0-0-0-0-0-0-0-0-0-0-0-0-0-0-0-0-0-0-|
D|----------------------7-------------------------------------------|

e|---------------------------------------------------------------|Part12 
b|---------------------------------------------------------------|
g|-----7-----8-----8---------------------------------------------|
d|--0--7-0-0-8-0-0-8-0--8-8-xx-3-3-xx-10-10-xx-0-----------------|
a|--0--5-0-0-6-0-0-6-0--8-8-xx-3-3-xx-10-10-xx-0-----------------|
D|--0----0-0---0-0---0--8-8-xx-3-3-xx-10-10-xx-0-----------------|
        I am not 100% possitive this part is right. sounds close
        to me.
e|-------------------------|Part 13
b|-------------------------|
g|-------------------------|
d|-----0---0---------------|x3
a|-------0-------5-----3/5-|
D|-0---------0-5---0-3-----|

e|---------------------------------------|Part 13.5
b|---------------------------------------|
g|---------------------------------------|
d|-----0---0-----------------------------|
a|-------0-------5---3-0-2-0-0-3-0-2-0-5-|
D|-0---------0-5---0-3-0-2-0-0-3-0-2-0-5-|

e|-------------------------|Part 14
b|-------------------------|
g|-------------------------|
d|-------------------------|
a|-0-0-3-0-2-0-0-3-0-2-0-5-|x2
D|-0-0-3-0-2-0-0-3-0-2-0-5-|

e|-------------------------|Part 14
b|-------------------------|
g|-------------------------|
d|-------------------------|
a|-xxxxxx3xx2xx3xx2xx5-----|x3
D|-xxxxxx3xx2xx3xx2xx5-----|

e|----------------------------------|Part 14
b|----------------------------------|
g|----------------------------------|
d|----------------------------------|
a|-xxxxxx3xx2xx3xx2xx5--------------|
D|-xxxxxx3xx2xx3xx2xx5----035-035---|

e|--------------------|Part 15
b|--------------------|
g|--------------------|
d|--------------------|
a|------5------6----3-|x8
D|-0-035--0-035--035--|

Tabed by William Joslin
Email, william2k6wj@hotmail.com
Tap to rate this tab
# A B C D E F G H I J K L M N O P Q R S T U V W X Y Z