Song name
# A B C D E F G H I J K L M N O P Q R S T U V W X Y Z

Tool - Schism tab

This is the absolute correct way to play it. ive listened so many time and figured it out.

This is played in Drop D tuning.
E
B
G
D
A
D
/: legato slide up
\: legato slide down
[]: triplet
P.M.: Palm Mute
|:  : Repeat 
Intro
Guitar1
E----------------|--------------------|
B----------------|--------------------|
G--3---2---5---7-|---3---2---5---7----|
D--0---3---5---8-|---0---3---5---8----|
A----------------|--------------------|
D--0---3---5---8-|---0---3---5---8---0|

Guitar 2 plays it it comes in on the 4th beat of the measure after the bass lick.
          P.M.-------------------------------------------------------- 
E----------------|E|:---------------------------------------------------:|
B----------------|B|:---------------------------------------------------:|
G----------------|G|:-3----2-------------3------2-------5---------------:|
D---------[0-3-5]|D|:---0-----0---[0-3-5]---0-------0-------0---[0-3-5]-:|
A----------------|A|:---------------------------------------------------:|
D----------------|D|:---------------------------------------------------:|

 P.M.-----------------------------------
E-----------------------------------------------|----------------|
B-----------------------------------------------|-3--------------|
G-3-------2-------------3--------2--------5-----|-2--------------|
D-----0-------0-[0-3-5]-----0--------0-------0--|-0--------------|
A-----------------------------------------------|----------------|
D----------------------------------------------0|----------------|

Let ring-----------|                  Let ring----------|
E------------------|-----------------|-3--------------|
B-3----------------|-----------------|--3-------------|
G------------------|-----------------|----------------|
D--0---------------|-----------------|----------------|
A------------------|-----------------|----------------|
D----0--0----------|-----------------|----------------|
         
P.M.------------------------------------------------------
E-5----------------|E:----------------------------------------------:|
B--3---------------|B:----------------------------------------------:|
G------------------|G:----------------------------------------------:|
D------------------|D:10-----9------------10-----9-----12-----------:|
A---------[0-10-12]|A:----0-----0-[0-10-12----0-----0------[0-10-12]:|
D------------------|D:----------------------------------------------:|

P.M.-----------------------------------------------
E--------------------------------------------------|
B--------------------------------------------------|
G--------------------------------------------------|
D-10-----9-------------10-----9-----12-------------|
A-----0-----0-[0-10-12]----0-----0------0-[0-10-12]|
D--------------------------------------------------|

P.M.-----------------------------------
E--------------------------------------------------|
B--------------------------------------------------|
G--------------------------------------------------|
D-10-----9-------------10-----9-----12-------------|
A-----0-----0-[0-10-12]----0-----0------0-[0-10-12]|
D--------------------------------------------------|

Interlude
E|:-----------------------------------------------------:|
B|:-----------------------------------------------------:|
G|:-----------------------------------------------------:|
D|:-10-----9----------------10-----9-----12-------------:|
A|:-----0-----0--0-[0-10-12]----0-----0------0-[0-10-12]:|
D|:-----------------------------------------------------:|
                                             P.M.---
E---------------------------------------------------|
B---------------------------------------------------|
G---------------------------------------------------|
D-10-----9----------------10-----9-----12----[0-5-7]|
A-----0-----0--0-[0-10-12]----0-----0------0--------|
D---------------------------------------------------|

P.M.--------------------------------------------------
E|:---------------------------------------------------:|
B|:---------------------------------------------------:|
G|:-5-----4-----------5------4------7-----------------:|
D|:----0-----0-[0-5-7]----0------0------0-[0-5-7]-----:|
A|:---------------------------------------------------:|
D|:---------------------------------------------------:|

Interlude

To the end

E-----------------------------------------|
B-----------------------------------------|
G-----------------------------------------|
D-10-----9----------------10-----9-----12\|
A-----0-----0--0-[0-10-12]----0-----0-----|
D-----------------------------------------|

E--------------------------------------|
B--------------------------------------|
G--------------------------------------|
D--------------------------------------|
A-0--xx-3--xx-5--3-xx--3--5--5--------3|
D-0--xx-3--xx-5--3-xx--3--5--5-[0-3-5]-|

E--------------------------------------|
B--------------------------------------|
G--------------------------------------|
D--------------------------------------|
A-0--xx-3--xx-5--3-xx--3--5--5--------3|
D-0--xx-3--xx-5--3-xx--3--5--5-[0-3-5]-|

the 12's come in on the 3rd beat of the measure you just played
              P.M.
E----------------------|
B---------12-----------|
G---------12-----------|
D---------12-----------|
A-------------[0-10-12]|
D----------------------|                       
                                          Repeat 8 times
P.M.--------------------------------------------------
E|:---------------------------------------------------:|
B|:---------------------------------------------------:|
G|:-5-----4-----------5------4------7-----------------:|
D|:----0-----0-[0-5-7]----0------0------0-[0-5-7]-----:|
A|:---------------------------------------------------:|
D|:---------------------------------------------------:|

E----------------------------------------------------------|
B----------------------------------------------------------|
G----------------------------------------------------------|
D-10-----9----------------10------9------12-------------10-|
A-----0-----0--0-[0-10-12]-----0------0------0-[0-10-12]---|
D----------------------------------------------------------|

E-------------------------------------------------------|
B-------------------------------------------------------|
G-------------------------------------------------------|
D-10-----9----------------10-----9-----12-------------10|
A-----0-----0--0-[0-10-12]----0-----0------0-[0-10-12]--|
D-------------------------------------------------------|

E|:-------------------------------------------------------------:|
B|:-------------------------------------------------------------:|
G|:-------------------------------------------------------------:|
D|:----9-----12-------------10-------9------12---------------10-:|
A|:-0-----0------0-[0-10-12]-----0-------0-------0-[-0-10-12]---:|
D|:-------------------------------------------------------------:|

E----------------------------------------------|
B----------------------------------------------|
G----------------------------------------------|
D-----9------12-------------10-------0---------|
A-0-------0------0-[0-10-12]-----0-------0-----|
D----------------------------------------------|

Interlude 2
P.M.-----------------------------------------------
E|:------------------------------------------------
B|:------------------------------------------------
G|:------------------------------------------------
D|:-14------14---17-----17---14-----14---19-----19-
A|:-----0----0-------0---0-------0---0-------0---0-
D|:------------------------------------------------
P.M.--------------------------------------------------------
E-----------------------------------------------------------:|
B-----------------------------------------------------------:|
G-----------------------------------------------------------:|
D-12------12---14-----14---10-----10---12-----10------12----:|
A-----0----0-------0---0-------0---0-------0---0---0------0-:|
D-----------------------------------------------------------:|
P.M.------------------------------------------------------------
E------------------------------|-------------------------------|
B------------------------------|-------------------------------|
G------------------------------|-------------------------------|
D-14-----14---17-----17---14---|-14-----14---17-----17---14----|
A-----0---0-------0---0-------0|-----0---0-------0---0-------0-|
D------------------------------|-------------------------------|

E---------------------------------------|-------------|
B---------------------------------------|-------------|
G---------------------------------------|-------------|
D-14---17-----17---14-----14------------|-10-----9----|
A--0-------0---0-------0-------[0-10-12]|-----0-----0-|
D---------------------------------------|-------------|

E|:-------------------------------|--------------------------------:|
B|:-------------------------------|--------------------------------:|
G|:-------------------------------|--------------------------------:|
D|:-14-----14---17-----17---14----|-14---17-----17---14-----14-----:|
A|:-----0---0-------0---0-------0-|--0-------0---0-------0-------0-:|
D|:-------------------------------|--------------------------------:|

E---------------------------|----------------------------|
B---------------------------|----------------------------|
G---------------------------|-----9-----------12---------|
D-----10\------5\--------12-|-7---x------------x---------|
A-8--------3--------10------|-7---7---0---0---10---0---0-|
D---------------------------|-7--------------------------|

E----------------------------------------|
B----------------------------------------|
G-9-----------12-----------9-------------|
D-x------------x-----------x-------------|
A-7---0---0---10---0---0---7---0---0---0-|
D----------------------------------------|

E------------------------------|-----------------------------------------|
B------------------------------|-----------------------------------------|
G------------------------------|---------------7---7---8---7---7---8---7-|
D-----10----------5/------12---|-------0-------7---7---8---7---7---8---7-|
A-8-------0---0-------10-------|---------------5---5---6---5---5---6---5-|
D----------------------------0-|-0---------0-----------------------------|

E-------------------------5---5---7-|-----------|
B-------------------------3---3---7-|-----------|
G-------------------------3---3---5-|-----------|
D-10--8---10--5---3---5-------------|-----------|
A-8---8---8---5---3---3-------------|---0-----5-|
D-8---8---8---3---3---3-------------|---0-------|

E-------------------------------|
B-------------------------------|
G-----------------------------5-|
D----0------------------------3-|
A-0-------------0---------3---3-|
D--------0---5-----0---3--------|

E|:----------|----------------------------------:|
B|:----------|----------------------------------:|
G|:----------|--------------------------------5-:|
D|:----------|-----0--------------------------3-:|
A|:--------5-|--0--------------0----------3---3-:|
D|:-0---0----|----------0---5------0---3--------:|

E----------------------|
B----------------------|
G----------------------|
D-----0----------------|
A-0--------------0-----|
D---------0---5------0-|

P.M.-----------------------------------------------
E|:-----------------------------------------------:|
B|:-----------------------------------------------:|
G|:-----------------------------------------------:|
D|:-----------------------------------------------:|
A|:-3---0---2---0---0---3---0---2---0---5---0---0-:|
D|:-3---0---2---0---0---3---0---2---0---5---0---0-:|

P.M.-------------------------------------------------
E----------------------------------------------------|
B----------------------------------------------------|
G----------------------------------------------------|
D----------------------------------------------------|
A-3---0---2---0---0---3---0---2---0---5---x--x--x--x-|
D-3---0---2---0---0---3---0---2---0---5---x--x--x--x-|

Repeat 4 times
E|:---------------------------------------------------:|
B|:---------------------------------------------------:|
G|:---------------------------------------------------:|
D|:---------------------------------------------------:|
A|:-3---x-x--2---x-x-x-x-3---x-x--2---x-x-5---x-x-x-x-:|
D|:-3---x-x--2---x-x-x-x-3---x-x--2---x-x-5---x-x-x-x-:|

P.M.--------------------------------------
E|:---------------------------------------:|
B|:---------------------------------------:|
G|:---------------------------------------:|
D|:------------5-------------6-[5-6-5]--3-:|
A|:-0---[0-3-5]-----0-[0-3-5]-------------:|

Thats it if u have any question and u have myspace my address is www.myspace.com/tweak6479.
D|:
Tap to rate this tab
 
# A B C D E F G H I J K L M N O P Q R S T U V W X Y Z