Song name
# A B C D E F G H I J K L M N O P Q R S T U V W X Y Z

Tool - Prison Sex tab

Intro: *Delay On*
e-----------------------------------------------------------------|
b-----------------------------------------------------------------|
g-----------------------------------------------------------------|
d-----------------------------------------------------------------|
a-----------------------------------------------------------------|
b--x\\----------x-x\\\-----------x\\\\-\\-\-----------x\\-\\\\\\--|

*Delay Off*
e-----------------------------------|
b-----------------------------------|
g-----------------------------------| x3
d--------------------------0h2------|
a-----------------------------------|
b--0---x-0-x-x-0---x-x-x-x----------|
   pm - - - - - - - - - -|
e-----------------------------------|
b-----------------------------------|
g-----------------------------------|
d--2-----2-0-----0-------------0----|
a------------------2-------0h2------|
b-----------------------------------|

Main Riff:
e-----------------------------------|
b-----------------------------------|
g-----------------------------------| x4
d--0-----------2--------------------|
a--------------0-----------0h2------|
b------3b--0-----------3b-----------|
           pm          pm

Transition to 2nd Verse:
e----------------------------------|
b----------------------------------|
g----------------------------------|
d--0-----------2-------2h3p2p0-----|
a--------------0---------------2p0-|
b------3b--0-----------------------|
           pm

Verse Riff:
e----------------------------------|
b----------------------------------|
g----------------------------------| x8
d----------------------------------|
a----------------------------------|
b--3--0--0--5-----0--10-10-12-12\--|
   pm - - - - - - - - - - - - - - |

Pre-Chorus:
e----------------------------------|
b----------------------------------|
g----------------------------------| x4
d------0---------------------------|
a--------------12\\\\-----0h2------|
b--3b------0---10\\\\-----0--------|
   pm      pm

Chorus:
e-----------------------------------------------------------------|
b-----------------------------------------------------------------|
g-----------------------------------------------------------------| x3
d-----------------------------------------------------------------|
a--2-----------12----------5-----------7-----------7-------5------|
b--0-------0---10------0---3-------0---5-------0---5---0---3---0--|
           pm          pm          pm          pm      pm      pm

Bridge:
e-----------------------------------------------------------------|
b-----------------------------------------------------------------|
g-----------------------------------------------------------------|
d-----------------------------------------------------------------|
a--2---2---2---7---7---7---5---5---5--/10--10--10--7---7---5---5--|
b--0---0---0---5---5---5---3---3---3--/8---8---8---5---5---3---3--|

                x3                 *ph = pinch harmonic
e---------------------------------------------------|-----------------------------|
b---------------------------------------------------|-----------------------------|
g----------------------------------*ph--------------|-----------------------------|
d------------------------------5h7-7~~-5~~--------0-|------0----------------------|
a--------------------------5h7-------------7~~-0h2--|--------------12\\\\-----0h2-|
b--0---x-x-0-x-0---x-x-x-x--------------------------|--3b------0---10\\\\-----0---|
   pm - - - - - - - - - - |                            pm      pm

Guitar Solo: *Delay On*
e--------------------------------------------------------|
b--------------------------------------------------------|
g------------------4-------------------------------------|
d--------2-----4--(4)---4-----2---0-----------0----------|
a--2----(2)------------------------------0---------0h2~~-|
b--------------------------------------------------------|

e-------------------------------------------------------|
b-------------------------------------------------------|
g--2h4-4-----------3-----------2------------------------|
d--2h4-4-------2h4-4-------2h4-4-------2h4-4--b-//------|
a------------------------------------------2--b-//------|
b-------------------------------------------------------|

e------------------------------------------------------------------------------|
b------------------------------------------------------------------------------|
g--------16-16--16-16~-16-16--16-16--16--------15-15--15-15~-15-15--15-15--15--|
d--14h16-16-16--16-16~-16-16--16-16--16--14h16-16-16--16-16--16~16--16-16--16--|
a------------------------------------------------------------------------------|
b------------------------------------------------------------------------------|

e------------------------------------------------------------------------------|
g--------14-14--14-14~-14-14--14-14--14----------------------------------------|
d--14h16-16-16--16-16~-16-16--16-16--16--14h16---------------------------------|
d----------------------------------------------14~~~~~--14b-------14b------14\-|
a------------------------------------------------------------------------------|
b------------------------------------------------------------------------------|

                                                               *pinch harmonic
e---------------------------------------------------------------------|
b---------------------------------------------------------------------|
g--------------------------------------------------------------*ph----|
d--------4-----2-0-------4-----2-4/5-----4-----2-0-------4-----5b-----|
a--2---------------2-------------------------------2------------------|
b---------------------------------------------------------------------|

e---------------------------------------------------------------|
b---------------------------------------------------------------|
g--------------------------12~~~~------------------------12~~~~-|
d--------------------------x-----------------------------x------|
a--d-----d---u-d-----u-dud-10~~~~d-----d---u-d-----u-d-u-10~~~~-|
b--0-----0---0-0-----0-000-0-----0-----0---0-0-----0-0-0-0------|
   pm - - - - - - - - - -|       pm - - - - - - - - - -|

e--------------------------------------|
b--------------------------------------|
g--------------------------------------| x4
d--------------------------------------|
a--------------------------------------|
b--3p0-0-5p0-0-3p0-0/10p0-0-12p0-10p0--|
   pm - - - - - - - - - - - - - - - - |

Backing Track:
                  x4                               x4
e--------------------------------------|--------------------------|
b--3p0-0-5p0-0-3p0-0/10p0-0-12p0-10p0--|--12b-(tremolo pick)------|
g--------------------------------------|--11b---------------------|
d--------------------------------------|--------------------------|
a--------------------------------------|--------------------------|
b--------------------------------------|--------------------------|

e--------------------------------------|
b--------------------------------------|
g--------------------------------------| x4
d--------------------------------------|
a--5-----7-----5----/12-----14\--12\---|
b--3---0-5---0-3---0/10---0-12\--10\---|
       pm    pm    pm     pm

Outro Riff:
e-------------------------------------------------------------------------|
b-------------------------------------------------------------------------|
g----------------------------------12~~~~--------------------------12~~~~-|
d----------------------------------x-------------------------------x------|
a--2-------------------------------10~~~~--------------------------10~~~~-|
b--0-----x-----x-----x-----xxx-x-x-0-----x-----x-----x-----x-x-xxxx0------|
         pm - - - - - - - - - - -|       pm - - - - - - - - - - - |

Outro: Tempo decreases gradually
e-----------------------|
b-----------------------|
g--12~~~~(12)-----------| x3
d--x---------------x-x--|
a--10~~~~(10)------x-x--|
b--0---------------x-x--|

e------------------------|
b------------------------|
g--12-----(12)b----------|
d--x---------------------|
a--10-----(10)b----------|
b--0------(0)------------|
Tap to rate this tab
 
# A B C D E F G H I J K L M N O P Q R S T U V W X Y Z