Song name
# A B C D E F G H I J K L M N O P Q R S T U V W X Y Z

Tool - Sober Acoustic tab

Tool – Sober (acoustic)
Tabbed by Mychelle
mychellerogers@gmail.com

Capo on 1

e|--------------------------------------------------|
B|--------------------------------------------------|
G|-7-7------5-7-------------------------------------|
D|-7-8-(x5)-5-8-(x5)--------------------------------|
A|--------------------------------------------------|
E|--------------------------------------------------|
		(waiting like…)

There's a shadow just behind me 
Shrouding every step I take
Making every promise empty 
Pointing every finger at me 

Waiting like the stalking butler 
Whom upon the finger rests 
Murder now the path called "must we" 
Just because the Son has come

e|--------------------------------------------------|
B|--------------------------------------------------|
G|--------------------------------------------------|
D|-7-------------8----------------------------------|
A|-7-------------8----------------------------------|
E|-X-(1 measure)-x-(1 measure)----------------------|
		 (something but what’s…)

Jesus, won't you fucking whistle 
Something but what's past and done? 
Jesus, won't you fucking whistle 
Something but what's past and done? 

e|---------------0----------------------------------|
B|---------------4----------------------------------|
G|-3-------------3----------------------------------|
D|-4-------------X----------------------------------|
A|-4-------------X----------------------------------|
E|-0-(1 measure)-X-(1 measure)----------------------|

Why can't we not be sober? 
I just want to start this over 
Why can't we drink forever? 
I just want to start this over

e|--------------------------------------------------|
B|--------------------------------------------------|
G|-7-7------5-7-------------------------------------|
D|-7-8-(x5)-5-8-(x5)--------------------------------|
A|--------------------------------------------------|
E|--------------------------------------------------|
	    (I will find a center in you…)

I am just a worthless liar 
I am just an imbecile 
I will only complicate you 
Trust in me and fall as well 

I will find a center in you 
I will chew it up and leave 
I will work to elevate you 
Just enough to bring you down

e|--------------------------------------------------|
B|--------------------------------------------------|
G|--------------------------------------------------|
D|-7-------------8----------------------------------|
A|-7-------------8----------------------------------|
E|-X-(1 measure)-x-(1 measure)----------------------|
		 (something but what’s…)


Mother Mary, won't you whisper 
Something but what's past and done? 
Mother Mary, won't you whisper 
Something but what's past and done? 

e|---------------0----------------------------------|
B|---------------4----------------------------------|
G|-3-------------3----------------------------------|
D|-4-------------X----------------------------------|
A|-4-------------X----------------------------------|
E|-0-(1 measure)-X-(1 measure)----------------------|

Why can't we not be sober? 
I just want to start this over 
Why can't we sleep forever? 
I just want to start this over 

e|--------------------------------------------------|
B|--------------------------------------------------|
G|-7-7------5-7-------------------------------------|
D|-7-8-(x5)-5-8-(x5)--------------------------------|
A|--------------------------------------------------|
E|--------------------------------------------------|
		(I will find a center…)

I am just a worthless liar 
I am just an imbecile 
I will only complicate you 
Trust in me and fall as well 
I will find a center in you 
I will chew it up and leave 

e|----|
B|----|
G|-5--|
D|-5--|
A|----|
E|----|
		


Trust me 
Trust me 
Trust me 
Trust me 
Trust me

e|---------------0----------------------------------|
B|---------------4----------------------------------|
G|-3-------------3----------------------------------|
D|-4-------------X----------------------------------|
A|-4-------------X----------------------------------|
E|-0-(1 measure)-X-(1 measure)----------------------|

Why can't we not be sober? 
I just want to start this over 
Why can't we sleep forever? 
I just want to start this over 

e|----|
B|----|
G|-7--|
D|-7--|
A|----|
E|----|
		
I want what I want 
I want what I want 
I want what I want 
I want what I want
Tap to rate this tab
 
# A B C D E F G H I J K L M N O P Q R S T U V W X Y Z