Tool - No Quarter tab

-----------------------------------------------------------------------------
                                    NO QUARTER - Tool
-----------------------------------------------------------------------------
Tabbed by: Jeremy Evett
Email: jeevett@hotmail.com

Tuning: Drop D

Intro: Flange, Delay, Select neck pickup with tone and volume knob turned down
|-----------------------------------------|-------------------------------------------|
|-----------------------------------------|-------------------------------------------|
|-----------------------------------------|-------------------------------------------|
|--------15p14\12---14---10---------------|----------15p14\12-14---10-----------10----|
|--------------------------------10---12--|-----------------------------10---12----12-|
|-0---------------------------------------|-10---0------------------------------------|

|-----------------------------------------|-------------------------------------------|
|-----------------------------------------|-------------------------------------------|
|-----------------------------------------|-------------------------------------------|
|--------15p14\12---14---10---------------|----------15p14\12-14---10-----10-------12-|
|--------------------------------10---12--|----------------------------12----12-10----|
|-0---------------------------------------|-10---0------------------------------------|

Verse/Intro:
|-----------------------------------------|-------------------------------------------|
|-----------------------------------------|-------------------------------------------|
|-----------------------------------------|-------------------------------------------|
|---------7-----/10-10------h12-12/14-14--|----------15p14\12-14---10-----10-------12-|
|-----------------------------------------|----------------------------12----12-10----|
|-0---------------------------------------|-------------------------------------------|

|-----------------------------------------|-------------------------------------------|
|-----------------------------------------|-------------------------------------------|
|-----------------------------------------|-------------------------------------------|
|---------10-----10h12----5-/7--7---------|----------10---p9----9----------12---------|
|-----------------------------------------|------------------10---------10------------|
|-0---------------------------------------|-------------------------------------------|

|-----------------------------------------|-------------------------------------------|
|-----------------------------------------|-------------------------------------------|
|-----------------------------------------|-------------------------------------------|
|---------7-----/10-10------h12-12/14-14--|----------15p14\12-14---10-----10-------10-|
|-----------------------------------------|----------------------------12----12-10----|
|-0---------------------------------------|-------------------------------------------|

|-----------------------------------------|-------------------------------------------|
|-----------------------------------------|-------------------------------------------|
|-----------------------------------------|-------------------------------------------|
|---------10-----10h12----5-/7--7~--------|------/10-10~------12----------------------|
|-----------------------------------------|----------------------------10-------------|
|-0---------------------------------------|-------------------------------------------|

|-----------------------------------------|
|-----------------------------------------|
|-----------------------------------------|
|-------7-7-----/10-10------h12-12\---\---| *Switch to bridge pickup
|-----------------------------------------|
|-0---------------------------------------|

Pre-Chorus:
|--------------------------------------------------------------------|
|--------------------------------------------------------------------|
|-9---------------9---------------9-------9-------10------/-12\-\----|
|-8-----------------8---------------8--------------------------------|
|-7-------------------7---------------7------------------------------|
|--------------------------------------------------------------------|

|--------------------------------------------------------------------|
|--------------------------------------------------------------------|
|-14--------------14--------------14------14-14---14---17\--12b------|
|-13----------------13--------------13-------------------------------|
|-12------------------12--------------12-----------------------------|
|--------------------------------------------------------------------|

Chorus:
|--------------------------------------------------------------------|
|--------------------------------------------------------------------|
|--------------------------------------------------------------------| 3x
|-5/7-7-7-7---5/7-7-7-7---5/7-7-0-3/5-5-5-5-3---3---------3p0--------|
|-3/5-5-5-5---3/5-5-5-5---3/5-5-0-3/5-5-5-5-3---3-----3p0-----0------|
|-------------------------------0-3/5-5-5-5-3---3-3p0---------0------|

|--------------------------------------------------------------------|
|--------------------------------------------------------------------|
|--------------------------------------------------------------------|
|-5/7-7-7-7---5/7-7-7-7---5/7-7-0-3/5-5-5-5-3---3---------3p0-----0--|
|-3/5-5-5-5---3/5-5-5-5---3/5-5-0-3/5-5-5-5-3---3-----3p0-----0---0--|
|-------------------------------0-3/5-5-5-5-3---3-3p0-------------0--|

Interlude:
|----------------------------------------------------------------------------------------|
|----------------------------------------------------------------------------------------|
|----------------------------------------------------------------------------------------|
|-------------14----------------14b------14----------------7-------------10---------10---|
|-10/12----12-12-------12----12-12b------12--0--3/5-----5--5-----5/8--------8-----8----8-|
|-10/12----12----------12----12--------------0--3/5-----5--------5/8----------8-8--------|

Guitar Solo:
|----------------------------------------------------------------------------------------|
|----------------------------------------------------------------------------------------|
|----------------------------------------------------------------------------------------|
|----------------------------------------------------------------------------------------|
|-10h12---12-12---12-13---12-12---10/12-12/15-15---15-15/17----13---13h15-15-----13h15\--|
|----------------------------------------------------------------------------------------|

|----------------------------------------------------------------------------------------|
|----------------------------------------------------------------------------------------|
|----------------------------------------------------------------------------------------|
|----------------------------------------------------------------------------------------|
|-10h12---12-12---12-13--/12-12p10-10h12-12/15-15--15-15h17\15-13h15\13-12h13\12-10h12\--|
|----------------------------------------------------------------------------------------|

|----------------------------------------------------------------------------------------|
|----------------------------------------------------------------------------------------|
|-----0-----0-----0-----0-----0-----0----------------------------------------------------|
|-3-2---3-2---3-2---3-2---3-2---3-2---3-2--------------------------------------------10--|
|-----------------------------------------3/5-3-3---------10----------10-------10h12-----|
|---------------------------------------------------10h12----12-10h12----12h10-----------|

|----------------------------------------------------------------------------------------|
|----------------------------------------------------------------------------------------|
|----------------------------------------------------------------------------------------|
|------------10-------------10-------------10-------------10---10-10h12-12p10-10/8-8/7b--|
|------10h12----------10h12----------12h10----------12h10--------------------------------|
|-12h10----------12h10----------12h10----------12h10-------------------------------------|

"Locked in a place where no one... goes"
|--------------------------------------------------------------------|
|--------------------------------------------------------------------|
|--------------------------------------------------------------------| x4
|-0-------12------15---14---0---10------7---7-------7---10---12---15-|
|-0-------12------15---14---0---10------7---7-------7---10---12---15-|
|-0-------12------15---14---0---10------7---7-------7---10---12---15-|

                 "Lock the door..."
|--------------------------------------------------------------------|
|---------15------18---17-------13------10--10------10--13---15---18-|
|---------14------17---16-------12------9---9-------9---12---14---17-| x4
|-0-------12------15---14---0---10------7---7-------7---10---12---15-|
|-0-------12------15---14---0---10------7---7-------7---10---12---15-|
|-0-------12------15---14---0---10------7---7-------7---10---12---15-|

|-----------------------------------------------------------------|
|-----------------------------------------------------------------|
|-*delay on-------------------------------------------------------|
|-0---------------------------------------------------------------|
|-0---------------------------------------------------------------|
|-0-----------0---0---0---0---0---0---0---0---0---0---0---0---0---|
              pm - - - - - - - - - - - - - - - - - - - - - - - -|

                                                              *pitch= D
|-----------------------------------------------------------------|
|-----------------------------------------------------------------|
|-----------------------------------------------------------------|
|-------------------------------------------------------------*nh-|
|-------------------------------------------------------------1.9-|
|-0---0---0---0---0---0---0---0---0---0---0---0---0---0---0-------|
  pm - - - - - - - - - - - - - - - - - - - - - - - - - - - - - -|

  *pitch= F#                                                  *pitch= D
|-----------------------------------------------------------------|
|-----------------------------------------------------------------|
|-*nh-------------------------------------------------------------| x3
|-1.8---------------------------------------------------------*nh-|
|-------------------------------------------------------------1.9-|
|-----0---0---0---0---0---0---0---0---0---0---0---0---0---x-x-----|
  pm - - - - - - - - - - - - - - - - - - - - - - - - - - - - - -|

  *pitch= F#
|-----------------------------------------------------------------|
|-----------------------------------------------------------------|
|-*nh-------------------------------------------------------------|
|-1.8-------------------------------------------------------x---x-|
|---------------------------------------------------------x-x-x-x-|
|-----0---0---0---0---0---0---0---0---0---0---0---0---0---x---x---|
  pm - - - - - - - - - - - - - - - - - - - - - - - - - - - - - -|

|-----------------------------------------------------------------------------------------|
|-------------3---3-------6---6-------6-------8-------8---8---10--10b-----*feedback*------|
|-------------2---2-------5---5-------5-------7-------7---7---9---9b----------------------|
|-0---------------------------------------------------------------------------------------|
|-0---------------------------------------------------------------------------------------|
|-0---------------------------------------------------------------------------------------|

|-----------------------------------------------------------------------------------------|
|-------------6---6-------6---6-------8-------6-------8---8---3---3b------*feedback*------|
|-------------5---5-------5---5-------7-------5-------7---7---2---2b----------------------|
|-0---------------------------------------------------------------------------------------|
|-0---------------------------------------------------------------------------------------|
|-0---------------------------------------------------------------------------------------|

|-----------------------------------------------------------------------------------------|
|-------------3---3-------6---6-------6-------8-------8---8---10--10b---r---10------------|
|-------------2---2-------5---5-------5-------7-------7---7---9---9b----r---9----9---9b---|
|-0------------------------------------------------------------------------------10--10b--|
|-0---------------------------------------------------------------------------------------|
|-0---------------------------------------------------------------------------------------|

|-----------------------------------------------------------------------------------------|
|-------------6---6-------6---6-------8-------6-------8---8---3---3b------*feedback*------|
|-------------5---5-------5---5-------7-------5-------7---7---2---2b----------------------|
|-0---------------------------------------------------------------------------------------|
|-0---------------------------------------------------------------------------------------|
|-0---------------------------------------------------------------------------------------|

|-----------------------------------------------------------------|
|-------------3---3-------6---6-------6-------8-------8---8--/10--|
|-------------2---2-------5---5-------5-------7-------7---7--/9---|
|-0---------------------------------------------------------------|
|-0---------------------------------------------------------------|
|-0---------------------------------------------------------------|

|-----------------------------------------------------------------------------------------|
|-----------------------------------------------------------------------------------------|
|-9----9----9----9--9----9----9----9--9-\7--7-/9--9--9--9----9--10---10--/12---12-12-/14--|
|-8----8----8----8--8----x----x----x--x-----x-----x--x--x----x--x----x----x----x--x-------|
|-7----7----7----7--7----7----7----7--7-\5--5-/7--7--7--7----7--8----8---/10---10-10-/12--|
|-----------------------------------------------------------------------------------------|

|-----------------------------------------------------------------------------------------|
|-----------------------------------------------------------------------------------------|
|-14---14---14---14-14---14---14---14-14\12-12/14-14-14-14---14-14---14/17---12--/14-14\--|
|-13---13---13---x--x----x----13---x--x-----x-----x--x--x----x--x----x-------x-------x----|
|-12---12---12---12-12---12---12---12-12\10-10/12-12-12-12---12-12---12/15---10--/12-12\--|
|-----------------------------------------------------------------------------------------|

Chorus:
|--------------------------------------------------------------------|
|--------------------------------------------------------------------|
|--------------------------------------------------------------------| 2x
|-5/7-7-7-7---5-/-7-7-7---5/7-7-0-3/5-5-5-5-3-3-3---------3p0--------|
|-3/5-5-5-5---3-/-5-5-5---3/5-5-0-3/5-5-5-5-3-3-3-----3p0-----0------|
|-------------------------------0-3/5-5-5-5-3-3-3-3p0---------0------|

|--------------------------------------------------------------------|
|-------------------------------------8-8-8-6-6-6--------------------|
|-----------------------------------7-7-7-7-5-5-5b-------------------| 2x
|-5-7---7-7\--5-7---7-7\--5/7-7-0-3/5-5-5-5-3-3-3---------3p0--------|
|-3-5---5-5\--3-5---5-5\--3/5-5-0-3/5-5-5-5-3-3-3-----3p0-----0------|
|-------------------------------0-3/5-5-5-5-3-3-3-3p0---------0------|

                x2                                 x1
|---------------------------------|---------------------------------|
|---------------------------------|---------------------------------|
|---------------------------------|---------------------------------|
|-5------(5)b-------------3p0-----|-5b-----p0---------------0-3-0---|
|-5------(5)b---------3p0-----0---|-5b-----p0-----------0-3---------|
|-5------(5)b-----3p0---------0---|-5b-----p0-------0-3-------------|
          pm

Outro:    x7                  x1
|-------------------|-------------------|
|-------------------|-------------------|
|-------------------|-------------------|
|-----------15p12---|-----------15\-----|
|------15p12--------|------15p12--------|
|-15p12----------12-|-15p12----------0--|

        x8               x4                x3                x1
|---------------|----------------|-------------------|---------------|
|---------------|----------------|-------------------|---------------|
|---------------|----------------|-------------------|---------------|
|---------3p0---|---------10p7---|-----------18p15---|-----------18b-|
|-----3p0-------|-----10p7-------|------18p15--------|------18p15----|
|-3p0---------0-|-10p7---------7-|-18p15----------15-|-18p15---------|

        x7              x1
|---------------|---------------|
|---------------|---------------|
|---------------|---------------|
|---------3p0---|---------3b0---|
|-----3p0-------|-----3p0---0---|
|-3p0---------0-|-3p0-------0---|

*Flange, delay on
|-----------------|
|-x/-----x\-x/----|
|---x/-x\-----x/--|
|-----------------| *Scrape string with
|-----------------|  edge of pick in circular motion
|-----------------|
Tap to rate this tab
 
# A B C D E F G H I J K L M N O P Q R S T U V W X Y Z