Song name
# A B C D E F G H I J K L M N O P Q R S T U V W X Y Z

Tool - Eon Blue Apocolypse tab

This is #2 on Lateralus.


Drop D tuning.

E----------------------------------------------------------------------------------------
B----------------------------------------------------------------------------------------
G----------------------------------------------------------------------------------------
D----------------------------------------------------------------------------------------
A----3/5-------------3/5-------------3/5-----------3/5-----------------------------------
D------------------------3/5----0----------------------3/5----0--------------------------


E----------------------------------------------------------------------------------------
B----------------------------------------------------------------------------------------
G----------------------------------------------------------------------------------------
D---8---7-----3/5----5/7----3---------------8-----7------3/5------5/7-----3--------------
A----------------------------------------------------------------------------------------
D------------------------------------0---------------------------------------------------


E----------------------------------------------------------------------------------------
B----------------------------------------3-----------------------------------------------
G----------------------------------------2-----------------------------------------------
D------5----------5----------------------0-----------------------------------------------
A----6---6--5---6---6---5---1---0--------0-----------------------------------------------
D----------------------------------------0-----------------------------------------------


/ = Slide up


If you have any questions, comments, comments, or concerns email me at pat_basketball_12@hotmail.com Peace
Tap to rate this tab
 
# A B C D E F G H I J K L M N O P Q R S T U V W X Y Z