Tool - Message To Harry Manback tab

-----------------------------------------------------------------------
                   Message To Harry Manback  - Tool
-----------------------------------------------------------------------
Tabbed by: Cody Norman
Email: codeman265_n@hotmail.com

This is as correct as I could get it in such short time.

Tuning: Standard

e|----------------------------------------------------------------------|
B|----------------------------------------------------------------------|
G|-----------9------11--12----11--12------------------------------------|
D|---------------9------------------------------9--10-------------------|
A|----------------------------------------------------------------------|
E|----------------------------------------------------------------------|

e|----------------------------------------------------------------------|
B|----------------------------------------------------------------------|
G|---------12--11-------12--11------------------------------------------|
D|--------------------12------------------------------------------------|
A|----------------------------------------------------------------------|
E|----------------------------------------------------------------------|

e|----------------------------------------------------------------------|
B|----------------------------------------------------------------------|
G|-----------9------11--12----11--12------------------------------------|
D|---------------9------------------------------9--10-------------------|
A|----------------------------------------------------------------------|
E|----------------------------------------------------------------------|

e|----------------------------------------------------------------------|
B|-----------13-12-10---------------------------------------------------|
G|-------------------------12-11-9-7------------------------------------|
D|----------------------------------------------------------------------|
A|----------------------------------------------------------------------|
E|----------------------------------------------------------------------|

^Repeat 6 or so times.^

v-This part I'm actually quite unsure about,
but it sounds correct to me. The rest should be perfect.-v

e|----------------------------------------------------10-------9--------|
B|--------------------12----------12------------------------------------|
G|-------------11----------11-------------------------------------------|
D|-13-------------------------------------------------------------------| X2
A|----------------------------------------------------------------------|
E|----------------------------------------------------------------------|

e|----------------------------------------------------------------------|
B|------------------------------------13-12-10--------------------------|
G|--------------------------------------------------12-11-9-7-----9-----|
D|--------------------9-----------------------------------------------9-|
A|---12-----------------------------------------------------------------|
E|----------------------------------------------------------------------|
Tap to rate this tab
 
# A B C D E F G H I J K L M N O P Q R S T U V W X Y Z