Tool - Message To Harry Manback tab

 E --------------------------------------------------|
 B -------7--8---7--8----------8--7-----8--7---------|
 G -9-----------------------5--------7---------------|
 D ---9----------------9-----------------------------|
 A -7-----------------------3--------5---------------|
 E --------------------------------------------------|

 E ---------------------------8-7-5------------------|
 B ------7--8---7--8----------------8--7-------------|
 G -9----------------------5--------7-----9--7-------|
 D ---9---------------9------------------------------|
 A -7----------------------3--------5----------------|
 E --------------------------------------------------|

(Repeat the above 6 times)

 E --------7-------7---10--9-------------------------|
 B -----7-------7------------------------------------|
 G -8------------------9-----------------------------|
 D --------------------------------------------------|  (x2)
 A -6------------------7-----------------------------|
 E --------------------------------------------------|

 E -----------------8-7-5----------------------------|
 B -------------------------8--7---------------------|
 G -2------------4----------7-----9--7-------9-------|
 D ------------------------------------------9-------|
 A -0------------2----------5----------------7-------|
 E --------------------------------------------------|
Tap to rate this tab
 
# A B C D E F G H I J K L M N O P Q R S T U V W X Y Z