Tool - H tab

Tool
H.
AENIMA album

this is my first tab so plz dont be hard on me


e|-------------------------------------|
b|-------------------------------------|
g|-------------------------------------|
d|-----7-----7----------7-----7--------|
a|----5-8---5-8-10-----5-8---5-8-10-5--|b
d|-------------------------------------|

e|------------------------------------|
b|-3----------------------------------|
g|-2----------------------------------|
d|-0----7----7------------------------|   play 2x
a|-0-----8--5-8-10--------------------|
d|-0----------------------------------|

e|------------------------------------|
b|-3--------15------------------------|
g|-2--------14------------------------|
d|-0----7---0----7--------------------|
a|-0-----8--0-----8-10----------------|
d|-0--------0-------------------------|
Tap to rate this tab
 
# A B C D E F G H I J K L M N O P Q R S T U V W X Y Z