Tool - Sober tab

Basically I transcribed Version 3 to a 5 string bass with no drop tuning. Sounds 
very good, and no need to drop the tuning. Much thanks to 14shadesofblue. If I had 
not seen your tab, I would not have tabbed this out for 5 string.

Tool - Sober
------------

G|------------------------------|
D|--x-x-x-x-x-x--x---x-x---x-x--|
A|--5-5-x-x-5-5--x---x-x---x-x--|
E|--5-5-x-x-5-5--x---x-x---x-x--|
B|--3-3-x-x-3-3--x--------------|


	0:24
G|-------------------------------------------|
D|--x-x----x---x-x----0-0-0-0-0---------0-0--|
A|--5-5----x---5-5----5-5-5-5-5-/-4-4-/-5-5--|
E|--5-5----x---5-5---------------------------|
B|--3-3--------3-3----x----------------------|


	0:27
G|------------------------------|
D|--0-0-x-x-0-0--x---x-x---x-x--|
A|--5-5-x-x-5-5--x---x-x---x-x--|
E|--5-5-x-x-5-5--x---x-x---x-x--|
B|--3-3-x-x-3-3--x---x-x---x-x--|


	0:52
G|-----7--------7--|
D|-----0--------0--|
A|--x--------x-----|
E|--5--------5-----|
B|--3--------3-----|


	1:17
G|-x-x-x--x--|
D|-x-x-x--x--|
A|-x-x-x--x--|
E|-x-x-x--x--|
B|-x-x-x--x--|


	1:18
G|-------------------------------------------------------------|
D|-7-----------------------------------------------1-1-1-1-1---|
A|-5-----------------------------------------------------------|
E|-5-------------------------5--1-1-1-1-1-1-1--1/--------------|
B|-3-3-3-3-3-3-3-3-3-3-3-3-3-----------------------------------|


	1:31
G|-------------------------------------------------|
D|----------x-x------------------------------------|
A|----------5-5------------------------------------|
E|--5-------5-5-----------------------1-1-1-1-1----|
B|--3-------3-3-------4--4--4--4----4-----------3--|


	1:56
G|------------------------------|
D|--x-x-x-x-x-x--x---x-x---x-x--|
A|--5-5-x-x-5-5--x---x-x---x-x--|
E|--5-5-x-x-5-5--x---x-x---x-x--|
B|--3-3-x-x-3-3--x---x-x---x-x--|


	2:09
G|-----7--------7--|
D|-----0--------0--|
A|-----------------|
E|--5--------5-----|
B|--3--------3-----|


	2:33
G|-x-x-x--x--|
D|-x-x-x--x--|
A|-x-x-x--x--|
E|-x-x-x--x--|
B|-x-x-x--x--|

	2:34
G|-------------------------------------------------------------|
D|-------------------------------------------------------------|
A|-------------------------------------------------------------|
E|-5-------------------------5--1-1-1-1-1-1-1--1/--3-3-3-3-3-3-|
B|-3-3-3-3-3-3-3-3-3-3-3-3-3-----------------------------------|


	2:47
G|-------------------------------------------------|
D|-------------------------------------------------|
A|-------------------------------------------------|
E|--5-------5-5---------------------1/1-1-1-1-1----|
B|--3-------3-3-------4--4--4--4----4-----------3--|


	3:13
G|0-----0-----|
D|0-----0-----|
A|0-----0-----|
E|0-----0-----|
B|3-----3-----|

	3:18
G|--14--14--14----15--15--12---15p12h14--14--14--14--15--15//17--|
D|---0---0---0-----0---0---0----0---------0---0---0---0---0---0--|
A|---------------------------------------------------------------|
E|---------------------------------------------------------------|
B|---------------------------------------------------------------|

	3:32
G|--14---14--14-14--15--15--12--12-12//14--14---14---14//15-15-12\\--|
D|---0-0--0------0---0---0---0------0---0---0-0--0-0--0---0--0--0----|
A|-------------------------------------------------------------------|
E|-------------------------------------------------------------------|
B|-------------------------------------------------------------------|

	3:48
G|--------------------------------------|
D|--------------------------------------|
A|---------------------------5-5---5-5--|
E|--x-x-x-x-x-x-x-x-x-x------5-5---5-5--|
B|--3-3-3-3-3-3-3-3-3-3------3-3---3-3--|


==================================================
	3:57
G|-------------------------------------------------|
D|-------------------------------------------------|
A|-------------------------------------------------|
E|--5-------5-5---------------------1/1-1-1-1-1----|
B|--3-------3-3-------4--4--4--4----4-----------3--|

	4:22
G|----------------------------------------------------------------------|
D|--------------7----------------------------------7-----------3-3-3/5--|
A|--5-5-8-5-5-5-0-5-5--5---------------5-5-8-5-5-5-0-5-5---5------------|
E|---------------------------1-1-1--------------------------------------|
B|-----------------------3-3--------------------------------------------|

	4:47
G|--x-x-x-x-x-x------x-x-x-x-x-x-x--|
D|--x-x-x-x-x-x-x-x--x-x-x-x-x-x-x--|
A|--5-5-x-x-x-x-5-5--x-x-x-x-x-x-x--|
E|--5-5-x-x-x-x-5-5--x-x-x-x-x-x-x--|
B|--3-3---------3-3-----------------|

	4:56
G|---------------------------------|
D|---------------------------------|
A|-------5-5---5-5-----5-5----5-5--|
E|-------5-5---5-5-----5-5----5-5--|
B|--4-4--3-3---3-3-----3-3----3-3--|


| /  slide up
| \  slide down
| h  hammer-on
| p  pull-off
| ~  vibrato
| +  harmonic
| x  Mute note
Tap to rate this tab
 
# A B C D E F G H I J K L M N O P Q R S T U V W X Y Z